  0
SECTION
  2
HEADER
  9
$MEASUREMENT
  70
  0
  9
$INSUNITS
  70
  1
  0
ENDSEC
  0
SECTION
  2
TABLES
  0
TABLE
  2
LTYPE
 70
     1
  0
LTYPE
  2
CONTINUOUS
 70
    64
  3
Ausgezogene Linie
 72
    65
 73
     0
 40
0.0
  0
ENDTAB
  0
TABLE
  2
LAYER
 70
     3
  0
LAYER
  2
Contour
 70
    64
 62
     7
  6
CONTINUOUS
  0
LAYER
  2
Engraving
 70
    64
 62
     7
  6
CONTINUOUS
  0
LAYER
  2
Reference_points
 70
    64
 62
     1
  6
CONTINUOUS
  0
ENDTAB
  0
TABLE
  2
STYLE
 70
     1
  0
STYLE
  2
TXT
 70
    64
 40
0.0
 41
1.0
 50
0.0
 71
     0
 42
3.500000
  3
TXT
  0
ENDTAB
  0
ENDSEC
  0
SECTION
  2
BLOCKS
  0
ENDSEC
  0
SECTION
  2
ENTITIES
  0
LINE
  8
Contour
 62
   7
 39
0.004
  6
CONTINUOUS
 10
1.69500
 20
8.73500
 30
 0
 11
0.04000
 21
8.73500
  0
ARC
  8
Contour
 62
   7
 39
0.004
  6
CONTINUOUS
 10
0.04000
 20
8.69500
 30
 0
 40
0.04000
 50
90.00000
 51
180.00000
  0
LINE
  8
Contour
 62
   7
 39
0.004
  6
CONTINUOUS
 10
0.00000
 20
8.69500
 30
 0
 11
0.00000
 21
0.04000
  0
ARC
  8
Contour
 62
   7
 39
0.004
  6
CONTINUOUS
 10
0.04000
 20
0.04000
 30
 0
 40
0.04000
 50
180.00000
 51
270.00000
  0
LINE
  8
Contour
 62
   7
 39
0.004
  6
CONTINUOUS
 10
0.04000
 20
0.00000
 30
 0
 11
1.69500
 21
0.00000
  0
ARC
  8
Contour
 62
   7
 39
0.004
  6
CONTINUOUS
 10
1.69500
 20
0.04000
 30
 0
 40
0.04000
 50
-90.00000
 51
0.00000
  0
LINE
  8
Contour
 62
   7
 39
0.004
  6
CONTINUOUS
 10
1.73500
 20
0.04000
 30
 0
 11
1.73500
 21
8.69500
  0
ARC
  8
Contour
 62
   7
 39
0.004
  6
CONTINUOUS
 10
1.69500
 20
8.69500
 30
 0
 40
0.04000
 50
0.00000
 51
90.00000
  0
LINE
  8
Engraving
 62
   255
 39
0.008
  6
CONTINUOUS
 10
0.61665
 20
0.14055
 30
 0
 11
0.64217
 21
0.23504
  0
LINE
  8
Engraving
 62
   255
 39
0.008
  6
CONTINUOUS
 10
0.64217
 20
0.23504
 30
 0
 11
0.66768
 21
0.14055
  0
LINE
  8
Engraving
 62
   255
 39
0.008
  6
CONTINUOUS
 10
0.62516
 20
0.16890
 30
 0
 11
0.65917
 21
0.16890
  0
LINE
  8
Engraving
 62
   255
 39
0.008
  6
CONTINUOUS
 10
0.69177
 20
0.14055
 30
 0
 11
0.69177
 21
0.23504
  0
LINE
  8
Engraving
 62
   255
 39
0.008
  6
CONTINUOUS
 10
0.69177
 20
0.23504
 30
 0
 11
0.70878
 21
0.23504
  0
LINE
  8
Engraving
 62
   255
 39
0.008
  6
CONTINUOUS
 10
0.70878
 20
0.23504
 30
 0
 11
0.71185
 21
0.23480
  0
LINE
  8
Engraving
 62
   255
 39
0.008
  6
CONTINUOUS
 10
0.71185
 20
0.23480
 30
 0
 11
0.71492
 21
0.23406
  0
LINE
  8
Engraving
 62
   255
 39
0.008
  6
CONTINUOUS
 10
0.71492
 20
0.23406
 30
 0
 11
0.71780
 21
0.23283
  0
LINE
  8
Engraving
 62
   255
 39
0.008
  6
CONTINUOUS
 10
0.71780
 20
0.23283
 30
 0
 11
0.72055
 21
0.23114
  0
LINE
  8
Engraving
 62
   255
 39
0.008
  6
CONTINUOUS
 10
0.72055
 20
0.23114
 30
 0
 11
0.72299
 21
0.22906
  0
LINE
  8
Engraving
 62
   255
 39
0.008
  6
CONTINUOUS
 10
0.72299
 20
0.22906
 30
 0
 11
0.72516
 21
0.22657
  0
LINE
  8
Engraving
 62
   255
 39
0.008
  6
CONTINUOUS
 10
0.72516
 20
0.22657
 30
 0
 11
0.72697
 21
0.22378
  0
LINE
  8
Engraving
 62
   255
 39
0.008
  6
CONTINUOUS
 10
0.72697
 20
0.22378
 30
 0
 11
0.72839
 21
0.22071
  0
LINE
  8
Engraving
 62
   255
 39
0.008
  6
CONTINUOUS
 10
0.72839
 20
0.22071
 30
 0
 11
0.72937
 21
0.21744
  0
LINE
  8
Engraving
 62
   255
 39
0.008
  6
CONTINUOUS
 10
0.72937
 20
0.21744
 30
 0
 11
0.72992
 21
0.21402
  0
LINE
  8
Engraving
 62
   255
 39
0.008
  6
CONTINUOUS
 10
0.72992
 20
0.21402
 30
 0
 11
0.73004
 21
0.21142
  0
LINE
  8
Engraving
 62
   255
 39
0.008
  6
CONTINUOUS
 10
0.73004
 20
0.21142
 30
 0
 11
0.73004
 21
0.16417
  0
LINE
  8
Engraving
 62
   255
 39
0.008
  6
CONTINUOUS
 10
0.73004
 20
0.16417
 30
 0
 11
0.72984
 21
0.16075
  0
LINE
  8
Engraving
 62
   255
 39
0.008
  6
CONTINUOUS
 10
0.72984
 20
0.16075
 30
 0
 11
0.72913
 21
0.15736
  0
LINE
  8
Engraving
 62
   255
 39
0.008
  6
CONTINUOUS
 10
0.72913
 20
0.15736
 30
 0
 11
0.72807
 21
0.15413
  0
LINE
  8
Engraving
 62
   255
 39
0.008
  6
CONTINUOUS
 10
0.72807
 20
0.15413
 30
 0
 11
0.72654
 21
0.15110
  0
LINE
  8
Engraving
 62
   255
 39
0.008
  6
CONTINUOUS
 10
0.72654
 20
0.15110
 30
 0
 11
0.72465
 21
0.14839
  0
LINE
  8
Engraving
 62
   255
 39
0.008
  6
CONTINUOUS
 10
0.72465
 20
0.14839
 30
 0
 11
0.72240
 21
0.14598
  0
LINE
  8
Engraving
 62
   255
 39
0.008
  6
CONTINUOUS
 10
0.72240
 20
0.14598
 30
 0
 11
0.71992
 21
0.14398
  0
LINE
  8
Engraving
 62
   255
 39
0.008
  6
CONTINUOUS
 10
0.71992
 20
0.14398
 30
 0
 11
0.71713
 21
0.14240
  0
LINE
  8
Engraving
 62
   255
 39
0.008
  6
CONTINUOUS
 10
0.71713
 20
0.14240
 30
 0
 11
0.71421
 21
0.14130
  0
LINE
  8
Engraving
 62
   255
 39
0.008
  6
CONTINUOUS
 10
0.71421
 20
0.14130
 30
 0
 11
0.71110
 21
0.14067
  0
LINE
  8
Engraving
 62
   255
 39
0.008
  6
CONTINUOUS
 10
0.71110
 20
0.14067
 30
 0
 11
0.70878
 21
0.14055
  0
LINE
  8
Engraving
 62
   255
 39
0.008
  6
CONTINUOUS
 10
0.70878
 20
0.14055
 30
 0
 11
0.69177
 21
0.14055
  0
LINE
  8
Engraving
 62
   255
 39
0.008
  6
CONTINUOUS
 10
0.75413
 20
0.16417
 30
 0
 11
0.75437
 21
0.16067
  0
LINE
  8
Engraving
 62
   255
 39
0.008
  6
CONTINUOUS
 10
0.75437
 20
0.16067
 30
 0
 11
0.75508
 21
0.15720
  0
LINE
  8
Engraving
 62
   255
 39
0.008
  6
CONTINUOUS
 10
0.75508
 20
0.15720
 30
 0
 11
0.75622
 21
0.15394
  0
LINE
  8
Engraving
 62
   255
 39
0.008
  6
CONTINUOUS
 10
0.75622
 20
0.15394
 30
 0
 11
0.75783
 21
0.15087
  0
LINE
  8
Engraving
 62
   255
 39
0.008
  6
CONTINUOUS
 10
0.75783
 20
0.15087
 30
 0
 11
0.75980
 21
0.14811
  0
LINE
  8
Engraving
 62
   255
 39
0.008
  6
CONTINUOUS
 10
0.75980
 20
0.14811
 30
 0
 11
0.76213
 21
0.14571
  0
LINE
  8
Engraving
 62
   255
 39
0.008
  6
CONTINUOUS
 10
0.76213
 20
0.14571
 30
 0
 11
0.76476
 21
0.14370
  0
LINE
  8
Engraving
 62
   255
 39
0.008
  6
CONTINUOUS
 10
0.76476
 20
0.14370
 30
 0
 11
0.76764
 21
0.14217
  0
LINE
  8
Engraving
 62
   255
 39
0.008
  6
CONTINUOUS
 10
0.76764
 20
0.14217
 30
 0
 11
0.77063
 21
0.14114
  0
LINE
  8
Engraving
 62
   255
 39
0.008
  6
CONTINUOUS
 10
0.77063
 20
0.14114
 30
 0
 11
0.77378
 21
0.14063
  0
LINE
  8
Engraving
 62
   255
 39
0.008
  6
CONTINUOUS
 10
0.77378
 20
0.14063
 30
 0
 11
0.77697
 21
0.14063
  0
LINE
  8
Engraving
 62
   255
 39
0.008
  6
CONTINUOUS
 10
0.77697
 20
0.14063
 30
 0
 11
0.78016
 21
0.14114
  0
LINE
  8
Engraving
 62
   255
 39
0.008
  6
CONTINUOUS
 10
0.78016
 20
0.14114
 30
 0
 11
0.78315
 21
0.14217
  0
LINE
  8
Engraving
 62
   255
 39
0.008
  6
CONTINUOUS
 10
0.78315
 20
0.14217
 30
 0
 11
0.78602
 21
0.14370
  0
LINE
  8
Engraving
 62
   255
 39
0.008
  6
CONTINUOUS
 10
0.78602
 20
0.14370
 30
 0
 11
0.78866
 21
0.14571
  0
LINE
  8
Engraving
 62
   255
 39
0.008
  6
CONTINUOUS
 10
0.78866
 20
0.14571
 30
 0
 11
0.79098
 21
0.14811
  0
LINE
  8
Engraving
 62
   255
 39
0.008
  6
CONTINUOUS
 10
0.79098
 20
0.14811
 30
 0
 11
0.79295
 21
0.15087
  0
LINE
  8
Engraving
 62
   255
 39
0.008
  6
CONTINUOUS
 10
0.79295
 20
0.15087
 30
 0
 11
0.79457
 21
0.15394
  0
LINE
  8
Engraving
 62
   255
 39
0.008
  6
CONTINUOUS
 10
0.79457
 20
0.15394
 30
 0
 11
0.79571
 21
0.15720
  0
LINE
  8
Engraving
 62
   255
 39
0.008
  6
CONTINUOUS
 10
0.79571
 20
0.15720
 30
 0
 11
0.79642
 21
0.16067
  0
LINE
  8
Engraving
 62
   255
 39
0.008
  6
CONTINUOUS
 10
0.79642
 20
0.16067
 30
 0
 11
0.79665
 21
0.16417
  0
LINE
  8
Engraving
 62
   255
 39
0.008
  6
CONTINUOUS
 10
0.79665
 20
0.16417
 30
 0
 11
0.79665
 21
0.16417
  0
LINE
  8
Engraving
 62
   255
 39
0.008
  6
CONTINUOUS
 10
0.79665
 20
0.16417
 30
 0
 11
0.79646
 21
0.16756
  0
LINE
  8
Engraving
 62
   255
 39
0.008
  6
CONTINUOUS
 10
0.79646
 20
0.16756
 30
 0
 11
0.79579
 21
0.17083
  0
LINE
  8
Engraving
 62
   255
 39
0.008
  6
CONTINUOUS
 10
0.79579
 20
0.17083
 30
 0
 11
0.79476
 21
0.17402
  0
LINE
  8
Engraving
 62
   255
 39
0.008
  6
CONTINUOUS
 10
0.79476
 20
0.17402
 30
 0
 11
0.79331
 21
0.17697
  0
LINE
  8
Engraving
 62
   255
 39
0.008
  6
CONTINUOUS
 10
0.79331
 20
0.17697
 30
 0
 11
0.79150
 21
0.17969
  0
LINE
  8
Engraving
 62
   255
 39
0.008
  6
CONTINUOUS
 10
0.79150
 20
0.17969
 30
 0
 11
0.78937
 21
0.18205
  0
LINE
  8
Engraving
 62
   255
 39
0.008
  6
CONTINUOUS
 10
0.78937
 20
0.18205
 30
 0
 11
0.78689
 21
0.18409
  0
LINE
  8
Engraving
 62
   255
 39
0.008
  6
CONTINUOUS
 10
0.78689
 20
0.18409
 30
 0
 11
0.78425
 21
0.18571
  0
LINE
  8
Engraving
 62
   255
 39
0.008
  6
CONTINUOUS
 10
0.78425
 20
0.18571
 30
 0
 11
0.78138
 21
0.18685
  0
LINE
  8
Engraving
 62
   255
 39
0.008
  6
CONTINUOUS
 10
0.78138
 20
0.18685
 30
 0
 11
0.77843
 21
0.18756
  0
LINE
  8
Engraving
 62
   255
 39
0.008
  6
CONTINUOUS
 10
0.77843
 20
0.18756
 30
 0
 11
0.77539
 21
0.18780
  0
LINE
  8
Engraving
 62
   255
 39
0.008
  6
CONTINUOUS
 10
0.77539
 20
0.18780
 30
 0
 11
0.77539
 21
0.18780
  0
LINE
  8
Engraving
 62
   255
 39
0.008
  6
CONTINUOUS
 10
0.77539
 20
0.18780
 30
 0
 11
0.77224
 21
0.18807
  0
LINE
  8
Engraving
 62
   255
 39
0.008
  6
CONTINUOUS
 10
0.77224
 20
0.18807
 30
 0
 11
0.76913
 21
0.18886
  0
LINE
  8
Engraving
 62
   255
 39
0.008
  6
CONTINUOUS
 10
0.76913
 20
0.18886
 30
 0
 11
0.76618
 21
0.19012
  0
LINE
  8
Engraving
 62
   255
 39
0.008
  6
CONTINUOUS
 10
0.76618
 20
0.19012
 30
 0
 11
0.76343
 21
0.19189
  0
LINE
  8
Engraving
 62
   255
 39
0.008
  6
CONTINUOUS
 10
0.76343
 20
0.19189
 30
 0
 11
0.76094
 21
0.19409
  0
LINE
  8
Engraving
 62
   255
 39
0.008
  6
CONTINUOUS
 10
0.76094
 20
0.19409
 30
 0
 11
0.75878
 21
0.19669
  0
LINE
  8
Engraving
 62
   255
 39
0.008
  6
CONTINUOUS
 10
0.75878
 20
0.19669
 30
 0
 11
0.75697
 21
0.19961
  0
LINE
  8
Engraving
 62
   255
 39
0.008
  6
CONTINUOUS
 10
0.75697
 20
0.19961
 30
 0
 11
0.75559
 21
0.20280
  0
LINE
  8
Engraving
 62
   255
 39
0.008
  6
CONTINUOUS
 10
0.75559
 20
0.20280
 30
 0
 11
0.75465
 21
0.20614
  0
LINE
  8
Engraving
 62
   255
 39
0.008
  6
CONTINUOUS
 10
0.75465
 20
0.20614
 30
 0
 11
0.75421
 21
0.20965
  0
LINE
  8
Engraving
 62
   255
 39
0.008
  6
CONTINUOUS
 10
0.75421
 20
0.20965
 30
 0
 11
0.75421
 21
0.21319
  0
LINE
  8
Engraving
 62
   255
 39
0.008
  6
CONTINUOUS
 10
0.75421
 20
0.21319
 30
 0
 11
0.75465
 21
0.21669
  0
LINE
  8
Engraving
 62
   255
 39
0.008
  6
CONTINUOUS
 10
0.75465
 20
0.21669
 30
 0
 11
0.75559
 21
0.22004
  0
LINE
  8
Engraving
 62
   255
 39
0.008
  6
CONTINUOUS
 10
0.75559
 20
0.22004
 30
 0
 11
0.75697
 21
0.22323
  0
LINE
  8
Engraving
 62
   255
 39
0.008
  6
CONTINUOUS
 10
0.75697
 20
0.22323
 30
 0
 11
0.75878
 21
0.22614
  0
LINE
  8
Engraving
 62
   255
 39
0.008
  6
CONTINUOUS
 10
0.75878
 20
0.22614
 30
 0
 11
0.76094
 21
0.22874
  0
LINE
  8
Engraving
 62
   255
 39
0.008
  6
CONTINUOUS
 10
0.76094
 20
0.22874
 30
 0
 11
0.76343
 21
0.23094
  0
LINE
  8
Engraving
 62
   255
 39
0.008
  6
CONTINUOUS
 10
0.76343
 20
0.23094
 30
 0
 11
0.76618
 21
0.23272
  0
LINE
  8
Engraving
 62
   255
 39
0.008
  6
CONTINUOUS
 10
0.76618
 20
0.23272
 30
 0
 11
0.76913
 21
0.23398
  0
LINE
  8
Engraving
 62
   255
 39
0.008
  6
CONTINUOUS
 10
0.76913
 20
0.23398
 30
 0
 11
0.77224
 21
0.23476
  0
LINE
  8
Engraving
 62
   255
 39
0.008
  6
CONTINUOUS
 10
0.77224
 20
0.23476
 30
 0
 11
0.77539
 21
0.23504
  0
LINE
  8
Engraving
 62
   255
 39
0.008
  6
CONTINUOUS
 10
0.77539
 20
0.23504
 30
 0
 11
0.77539
 21
0.23504
  0
LINE
  8
Engraving
 62
   255
 39
0.008
  6
CONTINUOUS
 10
0.77539
 20
0.23504
 30
 0
 11
0.77846
 21
0.23480
  0
LINE
  8
Engraving
 62
   255
 39
0.008
  6
CONTINUOUS
 10
0.77846
 20
0.23480
 30
 0
 11
0.78154
 21
0.23406
  0
LINE
  8
Engraving
 62
   255
 39
0.008
  6
CONTINUOUS
 10
0.78154
 20
0.23406
 30
 0
 11
0.78441
 21
0.23283
  0
LINE
  8
Engraving
 62
   255
 39
0.008
  6
CONTINUOUS
 10
0.78441
 20
0.23283
 30
 0
 11
0.78717
 21
0.23114
  0
LINE
  8
Engraving
 62
   255
 39
0.008
  6
CONTINUOUS
 10
0.78717
 20
0.23114
 30
 0
 11
0.78961
 21
0.22906
  0
LINE
  8
Engraving
 62
   255
 39
0.008
  6
CONTINUOUS
 10
0.78961
 20
0.22906
 30
 0
 11
0.79177
 21
0.22657
  0
LINE
  8
Engraving
 62
   255
 39
0.008
  6
CONTINUOUS
 10
0.79177
 20
0.22657
 30
 0
 11
0.79358
 21
0.22378
  0
LINE
  8
Engraving
 62
   255
 39
0.008
  6
CONTINUOUS
 10
0.79358
 20
0.22378
 30
 0
 11
0.79500
 21
0.22071
  0
LINE
  8
Engraving
 62
   255
 39
0.008
  6
CONTINUOUS
 10
0.79500
 20
0.22071
 30
 0
 11
0.79598
 21
0.21744
  0
LINE
  8
Engraving
 62
   255
 39
0.008
  6
CONTINUOUS
 10
0.79598
 20
0.21744
 30
 0
 11
0.79654
 21
0.21402
  0
LINE
  8
Engraving
 62
   255
 39
0.008
  6
CONTINUOUS
 10
0.79654
 20
0.21402
 30
 0
 11
0.79665
 21
0.21142
  0
LINE
  8
Engraving
 62
   255
 39
0.008
  6
CONTINUOUS
 10
0.82004
 20
0.14055
 30
 0
 11
0.82004
 21
0.23504
  0
LINE
  8
Engraving
 62
   255
 39
0.008
  6
CONTINUOUS
 10
0.82004
 20
0.23504
 30
 0
 11
0.83917
 21
0.23504
  0
LINE
  8
Engraving
 62
   255
 39
0.008
  6
CONTINUOUS
 10
0.83917
 20
0.23504
 30
 0
 11
0.84232
 21
0.23476
  0
LINE
  8
Engraving
 62
   255
 39
0.008
  6
CONTINUOUS
 10
0.84232
 20
0.23476
 30
 0
 11
0.84543
 21
0.23398
  0
LINE
  8
Engraving
 62
   255
 39
0.008
  6
CONTINUOUS
 10
0.84543
 20
0.23398
 30
 0
 11
0.84839
 21
0.23272
  0
LINE
  8
Engraving
 62
   255
 39
0.008
  6
CONTINUOUS
 10
0.84839
 20
0.23272
 30
 0
 11
0.85114
 21
0.23094
  0
LINE
  8
Engraving
 62
   255
 39
0.008
  6
CONTINUOUS
 10
0.85114
 20
0.23094
 30
 0
 11
0.85362
 21
0.22874
  0
LINE
  8
Engraving
 62
   255
 39
0.008
  6
CONTINUOUS
 10
0.85362
 20
0.22874
 30
 0
 11
0.85579
 21
0.22614
  0
LINE
  8
Engraving
 62
   255
 39
0.008
  6
CONTINUOUS
 10
0.85579
 20
0.22614
 30
 0
 11
0.85760
 21
0.22323
  0
LINE
  8
Engraving
 62
   255
 39
0.008
  6
CONTINUOUS
 10
0.85760
 20
0.22323
 30
 0
 11
0.85898
 21
0.22004
  0
LINE
  8
Engraving
 62
   255
 39
0.008
  6
CONTINUOUS
 10
0.85898
 20
0.22004
 30
 0
 11
0.85988
 21
0.21669
  0
LINE
  8
Engraving
 62
   255
 39
0.008
  6
CONTINUOUS
 10
0.85988
 20
0.21669
 30
 0
 11
0.86035
 21
0.21319
  0
LINE
  8
Engraving
 62
   255
 39
0.008
  6
CONTINUOUS
 10
0.86035
 20
0.21319
 30
 0
 11
0.86035
 21
0.20965
  0
LINE
  8
Engraving
 62
   255
 39
0.008
  6
CONTINUOUS
 10
0.86035
 20
0.20965
 30
 0
 11
0.85988
 21
0.20614
  0
LINE
  8
Engraving
 62
   255
 39
0.008
  6
CONTINUOUS
 10
0.85988
 20
0.20614
 30
 0
 11
0.85898
 21
0.20280
  0
LINE
  8
Engraving
 62
   255
 39
0.008
  6
CONTINUOUS
 10
0.85898
 20
0.20280
 30
 0
 11
0.85760
 21
0.19961
  0
LINE
  8
Engraving
 62
   255
 39
0.008
  6
CONTINUOUS
 10
0.85760
 20
0.19961
 30
 0
 11
0.85579
 21
0.19669
  0
LINE
  8
Engraving
 62
   255
 39
0.008
  6
CONTINUOUS
 10
0.85579
 20
0.19669
 30
 0
 11
0.85362
 21
0.19409
  0
LINE
  8
Engraving
 62
   255
 39
0.008
  6
CONTINUOUS
 10
0.85362
 20
0.19409
 30
 0
 11
0.85114
 21
0.19189
  0
LINE
  8
Engraving
 62
   255
 39
0.008
  6
CONTINUOUS
 10
0.85114
 20
0.19189
 30
 0
 11
0.84839
 21
0.19012
  0
LINE
  8
Engraving
 62
   255
 39
0.008
  6
CONTINUOUS
 10
0.84839
 20
0.19012
 30
 0
 11
0.84543
 21
0.18886
  0
LINE
  8
Engraving
 62
   255
 39
0.008
  6
CONTINUOUS
 10
0.84543
 20
0.18886
 30
 0
 11
0.84232
 21
0.18807
  0
LINE
  8
Engraving
 62
   255
 39
0.008
  6
CONTINUOUS
 10
0.84232
 20
0.18807
 30
 0
 11
0.83917
 21
0.18780
  0
LINE
  8
Engraving
 62
   255
 39
0.008
  6
CONTINUOUS
 10
0.83917
 20
0.18780
 30
 0
 11
0.83917
 21
0.18780
  0
LINE
  8
Engraving
 62
   255
 39
0.008
  6
CONTINUOUS
 10
0.83917
 20
0.18780
 30
 0
 11
0.82004
 21
0.18780
  0
LINE
  8
Engraving
 62
   255
 39
0.008
  6
CONTINUOUS
 10
0.82004
 20
0.18780
 30
 0
 11
0.83917
 21
0.18780
  0
LINE
  8
Engraving
 62
   255
 39
0.008
  6
CONTINUOUS
 10
0.83917
 20
0.18780
 30
 0
 11
0.86043
 21
0.14055
  0
LINE
  8
Engraving
 62
   255
 39
0.008
  6
CONTINUOUS
 10
0.88382
 20
0.13110
 30
 0
 11
0.90154
 21
0.18780
  0
LINE
  8
Engraving
 62
   255
 39
0.008
  6
CONTINUOUS
 10
0.90154
 20
0.18780
 30
 0
 11
0.91996
 21
0.24449
  0
LINE
  8
Engraving
 62
   255
 39
0.008
  6
CONTINUOUS
 10
0.94406
 20
0.23504
 30
 0
 11
0.96319
 21
0.14055
  0
LINE
  8
Engraving
 62
   255
 39
0.008
  6
CONTINUOUS
 10
0.96319
 20
0.14055
 30
 0
 11
0.98232
 21
0.23504
  0
LINE
  8
Engraving
 62
   255
 39
0.008
  6
CONTINUOUS
 10
1.04327
 20
0.21457
 30
 0
 11
1.04307
 21
0.21764
  0
LINE
  8
Engraving
 62
   255
 39
0.008
  6
CONTINUOUS
 10
1.04307
 20
0.21764
 30
 0
 11
1.04244
 21
0.22059
  0
LINE
  8
Engraving
 62
   255
 39
0.008
  6
CONTINUOUS
 10
1.04244
 20
0.22059
 30
 0
 11
1.04146
 21
0.22346
  0
LINE
  8
Engraving
 62
   255
 39
0.008
  6
CONTINUOUS
 10
1.04146
 20
0.22346
 30
 0
 11
1.04008
 21
0.22610
  0
LINE
  8
Engraving
 62
   255
 39
0.008
  6
CONTINUOUS
 10
1.04008
 20
0.22610
 30
 0
 11
1.03835
 21
0.22850
  0
LINE
  8
Engraving
 62
   255
 39
0.008
  6
CONTINUOUS
 10
1.03835
 20
0.22850
 30
 0
 11
1.03634
 21
0.23059
  0
LINE
  8
Engraving
 62
   255
 39
0.008
  6
CONTINUOUS
 10
1.03634
 20
0.23059
 30
 0
 11
1.03406
 21
0.23228
  0
LINE
  8
Engraving
 62
   255
 39
0.008
  6
CONTINUOUS
 10
1.03406
 20
0.23228
 30
 0
 11
1.03157
 21
0.23362
  0
LINE
  8
Engraving
 62
   255
 39
0.008
  6
CONTINUOUS
 10
1.03157
 20
0.23362
 30
 0
 11
1.02894
 21
0.23453
  0
LINE
  8
Engraving
 62
   255
 39
0.008
  6
CONTINUOUS
 10
1.02894
 20
0.23453
 30
 0
 11
1.02622
 21
0.23500
  0
LINE
  8
Engraving
 62
   255
 39
0.008
  6
CONTINUOUS
 10
1.02622
 20
0.23500
 30
 0
 11
1.02346
 21
0.23500
  0
LINE
  8
Engraving
 62
   255
 39
0.008
  6
CONTINUOUS
 10
1.02346
 20
0.23500
 30
 0
 11
1.02075
 21
0.23453
  0
LINE
  8
Engraving
 62
   255
 39
0.008
  6
CONTINUOUS
 10
1.02075
 20
0.23453
 30
 0
 11
1.01811
 21
0.23362
  0
LINE
  8
Engraving
 62
   255
 39
0.008
  6
CONTINUOUS
 10
1.01811
 20
0.23362
 30
 0
 11
1.01563
 21
0.23228
  0
LINE
  8
Engraving
 62
   255
 39
0.008
  6
CONTINUOUS
 10
1.01563
 20
0.23228
 30
 0
 11
1.01335
 21
0.23059
  0
LINE
  8
Engraving
 62
   255
 39
0.008
  6
CONTINUOUS
 10
1.01335
 20
0.23059
 30
 0
 11
1.01134
 21
0.22850
  0
LINE
  8
Engraving
 62
   255
 39
0.008
  6
CONTINUOUS
 10
1.01134
 20
0.22850
 30
 0
 11
1.00961
 21
0.22610
  0
LINE
  8
Engraving
 62
   255
 39
0.008
  6
CONTINUOUS
 10
1.00961
 20
0.22610
 30
 0
 11
1.00823
 21
0.22346
  0
LINE
  8
Engraving
 62
   255
 39
0.008
  6
CONTINUOUS
 10
1.00823
 20
0.22346
 30
 0
 11
1.00724
 21
0.22059
  0
LINE
  8
Engraving
 62
   255
 39
0.008
  6
CONTINUOUS
 10
1.00724
 20
0.22059
 30
 0
 11
1.00661
 21
0.21764
  0
LINE
  8
Engraving
 62
   255
 39
0.008
  6
CONTINUOUS
 10
1.00661
 20
0.21764
 30
 0
 11
1.00642
 21
0.21457
  0
LINE
  8
Engraving
 62
   255
 39
0.008
  6
CONTINUOUS
 10
1.00642
 20
0.21457
 30
 0
 11
1.00642
 21
0.21457
  0
LINE
  8
Engraving
 62
   255
 39
0.008
  6
CONTINUOUS
 10
1.00642
 20
0.21457
 30
 0
 11
1.00642
 21
0.16102
  0
LINE
  8
Engraving
 62
   255
 39
0.008
  6
CONTINUOUS
 10
1.00642
 20
0.16102
 30
 0
 11
1.00661
 21
0.15795
  0
LINE
  8
Engraving
 62
   255
 39
0.008
  6
CONTINUOUS
 10
1.00661
 20
0.15795
 30
 0
 11
1.00724
 21
0.15500
  0
LINE
  8
Engraving
 62
   255
 39
0.008
  6
CONTINUOUS
 10
1.00724
 20
0.15500
 30
 0
 11
1.00823
 21
0.15213
  0
LINE
  8
Engraving
 62
   255
 39
0.008
  6
CONTINUOUS
 10
1.00823
 20
0.15213
 30
 0
 11
1.00961
 21
0.14949
  0
LINE
  8
Engraving
 62
   255
 39
0.008
  6
CONTINUOUS
 10
1.00961
 20
0.14949
 30
 0
 11
1.01134
 21
0.14709
  0
LINE
  8
Engraving
 62
   255
 39
0.008
  6
CONTINUOUS
 10
1.01134
 20
0.14709
 30
 0
 11
1.01335
 21
0.14500
  0
LINE
  8
Engraving
 62
   255
 39
0.008
  6
CONTINUOUS
 10
1.01335
 20
0.14500
 30
 0
 11
1.01563
 21
0.14331
  0
LINE
  8
Engraving
 62
   255
 39
0.008
  6
CONTINUOUS
 10
1.01563
 20
0.14331
 30
 0
 11
1.01811
 21
0.14197
  0
LINE
  8
Engraving
 62
   255
 39
0.008
  6
CONTINUOUS
 10
1.01811
 20
0.14197
 30
 0
 11
1.02075
 21
0.14106
  0
LINE
  8
Engraving
 62
   255
 39
0.008
  6
CONTINUOUS
 10
1.02075
 20
0.14106
 30
 0
 11
1.02346
 21
0.14059
  0
LINE
  8
Engraving
 62
   255
 39
0.008
  6
CONTINUOUS
 10
1.02346
 20
0.14059
 30
 0
 11
1.02622
 21
0.14059
  0
LINE
  8
Engraving
 62
   255
 39
0.008
  6
CONTINUOUS
 10
1.02622
 20
0.14059
 30
 0
 11
1.02894
 21
0.14106
  0
LINE
  8
Engraving
 62
   255
 39
0.008
  6
CONTINUOUS
 10
1.02894
 20
0.14106
 30
 0
 11
1.03157
 21
0.14197
  0
LINE
  8
Engraving
 62
   255
 39
0.008
  6
CONTINUOUS
 10
1.03157
 20
0.14197
 30
 0
 11
1.03406
 21
0.14331
  0
LINE
  8
Engraving
 62
   255
 39
0.008
  6
CONTINUOUS
 10
1.03406
 20
0.14331
 30
 0
 11
1.03634
 21
0.14500
  0
LINE
  8
Engraving
 62
   255
 39
0.008
  6
CONTINUOUS
 10
1.03634
 20
0.14500
 30
 0
 11
1.03835
 21
0.14709
  0
LINE
  8
Engraving
 62
   255
 39
0.008
  6
CONTINUOUS
 10
1.03835
 20
0.14709
 30
 0
 11
1.04008
 21
0.14949
  0
LINE
  8
Engraving
 62
   255
 39
0.008
  6
CONTINUOUS
 10
1.04008
 20
0.14949
 30
 0
 11
1.04146
 21
0.15213
  0
LINE
  8
Engraving
 62
   255
 39
0.008
  6
CONTINUOUS
 10
1.04146
 20
0.15213
 30
 0
 11
1.04244
 21
0.15500
  0
LINE
  8
Engraving
 62
   255
 39
0.008
  6
CONTINUOUS
 10
1.04244
 20
0.15500
 30
 0
 11
1.04307
 21
0.15795
  0
LINE
  8
Engraving
 62
   255
 39
0.008
  6
CONTINUOUS
 10
1.04307
 20
0.15795
 30
 0
 11
1.04327
 21
0.16102
  0
LINE
  8
Engraving
 62
   255
 39
0.008
  6
CONTINUOUS
 10
1.04327
 20
0.16102
 30
 0
 11
1.04327
 21
0.16102
  0
LINE
  8
Engraving
 62
   255
 39
0.008
  6
CONTINUOUS
 10
1.06736
 20
0.14055
 30
 0
 11
1.09287
 21
0.23504
  0
LINE
  8
Engraving
 62
   255
 39
0.008
  6
CONTINUOUS
 10
1.09287
 20
0.23504
 30
 0
 11
1.11839
 21
0.14055
  0
LINE
  8
Engraving
 62
   255
 39
0.008
  6
CONTINUOUS
 10
1.07587
 20
0.16890
 30
 0
 11
1.10988
 21
0.16890
  0
LINE
  8
Engraving
 62
   255
 39
0.008
  6
CONTINUOUS
 10
0.32815
 20
1.26752
 30
 0
 11
0.32846
 21
1.26354
  0
LINE
  8
Engraving
 62
   255
 39
0.008
  6
CONTINUOUS
 10
0.32846
 20
1.26354
 30
 0
 11
0.32921
 21
1.25969
  0
LINE
  8
Engraving
 62
   255
 39
0.008
  6
CONTINUOUS
 10
0.32921
 20
1.25969
 30
 0
 11
0.33055
 21
1.25598
  0
LINE
  8
Engraving
 62
   255
 39
0.008
  6
CONTINUOUS
 10
0.33055
 20
1.25598
 30
 0
 11
0.33232
 21
1.25256
  0
LINE
  8
Engraving
 62
   255
 39
0.008
  6
CONTINUOUS
 10
0.33232
 20
1.25256
 30
 0
 11
0.33453
 21
1.24945
  0
LINE
  8
Engraving
 62
   255
 39
0.008
  6
CONTINUOUS
 10
0.33453
 20
1.24945
 30
 0
 11
0.33717
 21
1.24673
  0
LINE
  8
Engraving
 62
   255
 39
0.008
  6
CONTINUOUS
 10
0.33717
 20
1.24673
 30
 0
 11
0.34016
 21
1.24449
  0
LINE
  8
Engraving
 62
   255
 39
0.008
  6
CONTINUOUS
 10
0.34016
 20
1.24449
 30
 0
 11
0.34335
 21
1.24280
  0
LINE
  8
Engraving
 62
   255
 39
0.008
  6
CONTINUOUS
 10
0.34335
 20
1.24280
 30
 0
 11
0.34677
 21
1.24161
  0
LINE
  8
Engraving
 62
   255
 39
0.008
  6
CONTINUOUS
 10
0.34677
 20
1.24161
 30
 0
 11
0.35031
 21
1.24102
  0
LINE
  8
Engraving
 62
   255
 39
0.008
  6
CONTINUOUS
 10
0.35031
 20
1.24102
 30
 0
 11
0.35386
 21
1.24102
  0
LINE
  8
Engraving
 62
   255
 39
0.008
  6
CONTINUOUS
 10
0.35386
 20
1.24102
 30
 0
 11
0.35740
 21
1.24161
  0
LINE
  8
Engraving
 62
   255
 39
0.008
  6
CONTINUOUS
 10
0.35740
 20
1.24161
 30
 0
 11
0.36083
 21
1.24280
  0
LINE
  8
Engraving
 62
   255
 39
0.008
  6
CONTINUOUS
 10
0.36083
 20
1.24280
 30
 0
 11
0.36402
 21
1.24449
  0
LINE
  8
Engraving
 62
   255
 39
0.008
  6
CONTINUOUS
 10
0.36402
 20
1.24449
 30
 0
 11
0.36701
 21
1.24673
  0
LINE
  8
Engraving
 62
   255
 39
0.008
  6
CONTINUOUS
 10
0.36701
 20
1.24673
 30
 0
 11
0.36961
 21
1.24945
  0
LINE
  8
Engraving
 62
   255
 39
0.008
  6
CONTINUOUS
 10
0.36961
 20
1.24945
 30
 0
 11
0.37185
 21
1.25256
  0
LINE
  8
Engraving
 62
   255
 39
0.008
  6
CONTINUOUS
 10
0.37185
 20
1.25256
 30
 0
 11
0.37362
 21
1.25598
  0
LINE
  8
Engraving
 62
   255
 39
0.008
  6
CONTINUOUS
 10
0.37362
 20
1.25598
 30
 0
 11
0.37492
 21
1.25969
  0
LINE
  8
Engraving
 62
   255
 39
0.008
  6
CONTINUOUS
 10
0.37492
 20
1.25969
 30
 0
 11
0.37571
 21
1.26354
  0
LINE
  8
Engraving
 62
   255
 39
0.008
  6
CONTINUOUS
 10
0.37571
 20
1.26354
 30
 0
 11
0.37598
 21
1.26752
  0
LINE
  8
Engraving
 62
   255
 39
0.008
  6
CONTINUOUS
 10
0.37598
 20
1.26752
 30
 0
 11
0.37598
 21
1.26752
  0
LINE
  8
Engraving
 62
   255
 39
0.008
  6
CONTINUOUS
 10
0.37598
 20
1.26752
 30
 0
 11
0.37598
 21
1.33248
  0
LINE
  8
Engraving
 62
   255
 39
0.008
  6
CONTINUOUS
 10
0.37598
 20
1.33248
 30
 0
 11
0.37571
 21
1.33646
  0
LINE
  8
Engraving
 62
   255
 39
0.008
  6
CONTINUOUS
 10
0.37571
 20
1.33646
 30
 0
 11
0.37492
 21
1.34031
  0
LINE
  8
Engraving
 62
   255
 39
0.008
  6
CONTINUOUS
 10
0.37492
 20
1.34031
 30
 0
 11
0.37362
 21
1.34402
  0
LINE
  8
Engraving
 62
   255
 39
0.008
  6
CONTINUOUS
 10
0.37362
 20
1.34402
 30
 0
 11
0.37185
 21
1.34744
  0
LINE
  8
Engraving
 62
   255
 39
0.008
  6
CONTINUOUS
 10
0.37185
 20
1.34744
 30
 0
 11
0.36961
 21
1.35055
  0
LINE
  8
Engraving
 62
   255
 39
0.008
  6
CONTINUOUS
 10
0.36961
 20
1.35055
 30
 0
 11
0.36701
 21
1.35327
  0
LINE
  8
Engraving
 62
   255
 39
0.008
  6
CONTINUOUS
 10
0.36701
 20
1.35327
 30
 0
 11
0.36406
 21
1.35551
  0
LINE
  8
Engraving
 62
   255
 39
0.008
  6
CONTINUOUS
 10
0.36406
 20
1.35551
 30
 0
 11
0.36083
 21
1.35720
  0
LINE
  8
Engraving
 62
   255
 39
0.008
  6
CONTINUOUS
 10
0.36083
 20
1.35720
 30
 0
 11
0.35740
 21
1.35839
  0
LINE
  8
Engraving
 62
   255
 39
0.008
  6
CONTINUOUS
 10
0.35740
 20
1.35839
 30
 0
 11
0.35386
 21
1.35898
  0
LINE
  8
Engraving
 62
   255
 39
0.008
  6
CONTINUOUS
 10
0.35386
 20
1.35898
 30
 0
 11
0.35031
 21
1.35898
  0
LINE
  8
Engraving
 62
   255
 39
0.008
  6
CONTINUOUS
 10
0.35031
 20
1.35898
 30
 0
 11
0.34677
 21
1.35839
  0
LINE
  8
Engraving
 62
   255
 39
0.008
  6
CONTINUOUS
 10
0.34677
 20
1.35839
 30
 0
 11
0.34335
 21
1.35720
  0
LINE
  8
Engraving
 62
   255
 39
0.008
  6
CONTINUOUS
 10
0.34335
 20
1.35720
 30
 0
 11
0.34016
 21
1.35551
  0
LINE
  8
Engraving
 62
   255
 39
0.008
  6
CONTINUOUS
 10
0.34016
 20
1.35551
 30
 0
 11
0.33717
 21
1.35327
  0
LINE
  8
Engraving
 62
   255
 39
0.008
  6
CONTINUOUS
 10
0.33717
 20
1.35327
 30
 0
 11
0.33453
 21
1.35055
  0
LINE
  8
Engraving
 62
   255
 39
0.008
  6
CONTINUOUS
 10
0.33453
 20
1.35055
 30
 0
 11
0.33232
 21
1.34744
  0
LINE
  8
Engraving
 62
   255
 39
0.008
  6
CONTINUOUS
 10
0.33232
 20
1.34744
 30
 0
 11
0.33055
 21
1.34402
  0
LINE
  8
Engraving
 62
   255
 39
0.008
  6
CONTINUOUS
 10
0.33055
 20
1.34402
 30
 0
 11
0.32921
 21
1.34031
  0
LINE
  8
Engraving
 62
   255
 39
0.008
  6
CONTINUOUS
 10
0.32921
 20
1.34031
 30
 0
 11
0.32846
 21
1.33646
  0
LINE
  8
Engraving
 62
   255
 39
0.008
  6
CONTINUOUS
 10
0.32846
 20
1.33646
 30
 0
 11
0.32815
 21
1.33248
  0
LINE
  8
Engraving
 62
   255
 39
0.008
  6
CONTINUOUS
 10
0.32815
 20
1.33248
 30
 0
 11
0.32815
 21
1.33248
  0
LINE
  8
Engraving
 62
   255
 39
0.008
  6
CONTINUOUS
 10
0.32815
 20
1.33248
 30
 0
 11
0.32815
 21
1.26752
  0
LINE
  8
Engraving
 62
   255
 39
0.008
  6
CONTINUOUS
 10
0.40610
 20
1.35906
 30
 0
 11
0.40610
 21
1.26752
  0
LINE
  8
Engraving
 62
   255
 39
0.008
  6
CONTINUOUS
 10
0.40610
 20
1.26752
 30
 0
 11
0.40642
 21
1.26354
  0
LINE
  8
Engraving
 62
   255
 39
0.008
  6
CONTINUOUS
 10
0.40642
 20
1.26354
 30
 0
 11
0.40717
 21
1.25969
  0
LINE
  8
Engraving
 62
   255
 39
0.008
  6
CONTINUOUS
 10
0.40717
 20
1.25969
 30
 0
 11
0.40850
 21
1.25598
  0
LINE
  8
Engraving
 62
   255
 39
0.008
  6
CONTINUOUS
 10
0.40850
 20
1.25598
 30
 0
 11
0.41028
 21
1.25256
  0
LINE
  8
Engraving
 62
   255
 39
0.008
  6
CONTINUOUS
 10
0.41028
 20
1.25256
 30
 0
 11
0.41248
 21
1.24945
  0
LINE
  8
Engraving
 62
   255
 39
0.008
  6
CONTINUOUS
 10
0.41248
 20
1.24945
 30
 0
 11
0.41512
 21
1.24673
  0
LINE
  8
Engraving
 62
   255
 39
0.008
  6
CONTINUOUS
 10
0.41512
 20
1.24673
 30
 0
 11
0.41811
 21
1.24449
  0
LINE
  8
Engraving
 62
   255
 39
0.008
  6
CONTINUOUS
 10
0.41811
 20
1.24449
 30
 0
 11
0.42130
 21
1.24280
  0
LINE
  8
Engraving
 62
   255
 39
0.008
  6
CONTINUOUS
 10
0.42130
 20
1.24280
 30
 0
 11
0.42472
 21
1.24161
  0
LINE
  8
Engraving
 62
   255
 39
0.008
  6
CONTINUOUS
 10
0.42472
 20
1.24161
 30
 0
 11
0.42827
 21
1.24102
  0
LINE
  8
Engraving
 62
   255
 39
0.008
  6
CONTINUOUS
 10
0.42827
 20
1.24102
 30
 0
 11
0.43181
 21
1.24102
  0
LINE
  8
Engraving
 62
   255
 39
0.008
  6
CONTINUOUS
 10
0.43181
 20
1.24102
 30
 0
 11
0.43535
 21
1.24161
  0
LINE
  8
Engraving
 62
   255
 39
0.008
  6
CONTINUOUS
 10
0.43535
 20
1.24161
 30
 0
 11
0.43878
 21
1.24280
  0
LINE
  8
Engraving
 62
   255
 39
0.008
  6
CONTINUOUS
 10
0.43878
 20
1.24280
 30
 0
 11
0.44201
 21
1.24449
  0
LINE
  8
Engraving
 62
   255
 39
0.008
  6
CONTINUOUS
 10
0.44201
 20
1.24449
 30
 0
 11
0.44496
 21
1.24673
  0
LINE
  8
Engraving
 62
   255
 39
0.008
  6
CONTINUOUS
 10
0.44496
 20
1.24673
 30
 0
 11
0.44760
 21
1.24945
  0
LINE
  8
Engraving
 62
   255
 39
0.008
  6
CONTINUOUS
 10
0.44760
 20
1.24945
 30
 0
 11
0.44980
 21
1.25256
  0
LINE
  8
Engraving
 62
   255
 39
0.008
  6
CONTINUOUS
 10
0.44980
 20
1.25256
 30
 0
 11
0.45157
 21
1.25598
  0
LINE
  8
Engraving
 62
   255
 39
0.008
  6
CONTINUOUS
 10
0.45157
 20
1.25598
 30
 0
 11
0.45291
 21
1.25969
  0
LINE
  8
Engraving
 62
   255
 39
0.008
  6
CONTINUOUS
 10
0.45291
 20
1.25969
 30
 0
 11
0.45366
 21
1.26354
  0
LINE
  8
Engraving
 62
   255
 39
0.008
  6
CONTINUOUS
 10
0.45366
 20
1.26354
 30
 0
 11
0.45398
 21
1.26752
  0
LINE
  8
Engraving
 62
   255
 39
0.008
  6
CONTINUOUS
 10
0.45398
 20
1.26752
 30
 0
 11
0.45398
 21
1.26752
  0
LINE
  8
Engraving
 62
   255
 39
0.008
  6
CONTINUOUS
 10
0.45398
 20
1.26752
 30
 0
 11
0.45398
 21
1.35906
  0
LINE
  8
Engraving
 62
   255
 39
0.008
  6
CONTINUOUS
 10
0.48409
 20
1.35906
 30
 0
 11
0.53193
 21
1.35906
  0
LINE
  8
Engraving
 62
   255
 39
0.008
  6
CONTINUOUS
 10
0.53193
 20
1.35906
 30
 0
 11
0.50799
 21
1.35906
  0
LINE
  8
Engraving
 62
   255
 39
0.008
  6
CONTINUOUS
 10
0.50799
 20
1.35906
 30
 0
 11
0.50799
 21
1.24094
  0
LINE
  8
Engraving
 62
   255
 39
0.008
  6
CONTINUOUS
 10
1.10835
 20
1.30000
 30
 0
 11
1.18276
 21
1.30000
  0
LINE
  8
Engraving
 62
   255
 39
0.008
  6
CONTINUOUS
 10
1.29791
 20
1.26752
 30
 0
 11
1.29819
 21
1.26354
  0
LINE
  8
Engraving
 62
   255
 39
0.008
  6
CONTINUOUS
 10
1.29819
 20
1.26354
 30
 0
 11
1.29898
 21
1.25969
  0
LINE
  8
Engraving
 62
   255
 39
0.008
  6
CONTINUOUS
 10
1.29898
 20
1.25969
 30
 0
 11
1.30028
 21
1.25598
  0
LINE
  8
Engraving
 62
   255
 39
0.008
  6
CONTINUOUS
 10
1.30028
 20
1.25598
 30
 0
 11
1.30205
 21
1.25256
  0
LINE
  8
Engraving
 62
   255
 39
0.008
  6
CONTINUOUS
 10
1.30205
 20
1.25256
 30
 0
 11
1.30429
 21
1.24945
  0
LINE
  8
Engraving
 62
   255
 39
0.008
  6
CONTINUOUS
 10
1.30429
 20
1.24945
 30
 0
 11
1.30693
 21
1.24673
  0
LINE
  8
Engraving
 62
   255
 39
0.008
  6
CONTINUOUS
 10
1.30693
 20
1.24673
 30
 0
 11
1.30988
 21
1.24449
  0
LINE
  8
Engraving
 62
   255
 39
0.008
  6
CONTINUOUS
 10
1.30988
 20
1.24449
 30
 0
 11
1.31307
 21
1.24280
  0
LINE
  8
Engraving
 62
   255
 39
0.008
  6
CONTINUOUS
 10
1.31307
 20
1.24280
 30
 0
 11
1.31654
 21
1.24161
  0
LINE
  8
Engraving
 62
   255
 39
0.008
  6
CONTINUOUS
 10
1.31654
 20
1.24161
 30
 0
 11
1.32008
 21
1.24102
  0
LINE
  8
Engraving
 62
   255
 39
0.008
  6
CONTINUOUS
 10
1.32008
 20
1.24102
 30
 0
 11
1.32362
 21
1.24102
  0
LINE
  8
Engraving
 62
   255
 39
0.008
  6
CONTINUOUS
 10
1.32362
 20
1.24102
 30
 0
 11
1.32717
 21
1.24161
  0
LINE
  8
Engraving
 62
   255
 39
0.008
  6
CONTINUOUS
 10
1.32717
 20
1.24161
 30
 0
 11
1.33059
 21
1.24280
  0
LINE
  8
Engraving
 62
   255
 39
0.008
  6
CONTINUOUS
 10
1.33059
 20
1.24280
 30
 0
 11
1.33382
 21
1.24449
  0
LINE
  8
Engraving
 62
   255
 39
0.008
  6
CONTINUOUS
 10
1.33382
 20
1.24449
 30
 0
 11
1.33673
 21
1.24673
  0
LINE
  8
Engraving
 62
   255
 39
0.008
  6
CONTINUOUS
 10
1.33673
 20
1.24673
 30
 0
 11
1.33937
 21
1.24945
  0
LINE
  8
Engraving
 62
   255
 39
0.008
  6
CONTINUOUS
 10
1.33937
 20
1.24945
 30
 0
 11
1.34161
 21
1.25256
  0
LINE
  8
Engraving
 62
   255
 39
0.008
  6
CONTINUOUS
 10
1.34161
 20
1.25256
 30
 0
 11
1.34339
 21
1.25598
  0
LINE
  8
Engraving
 62
   255
 39
0.008
  6
CONTINUOUS
 10
1.34339
 20
1.25598
 30
 0
 11
1.34469
 21
1.25969
  0
LINE
  8
Engraving
 62
   255
 39
0.008
  6
CONTINUOUS
 10
1.34469
 20
1.25969
 30
 0
 11
1.34547
 21
1.26354
  0
LINE
  8
Engraving
 62
   255
 39
0.008
  6
CONTINUOUS
 10
1.34547
 20
1.26354
 30
 0
 11
1.34575
 21
1.26752
  0
LINE
  8
Engraving
 62
   255
 39
0.008
  6
CONTINUOUS
 10
1.34575
 20
1.26752
 30
 0
 11
1.34575
 21
1.26752
  0
LINE
  8
Engraving
 62
   255
 39
0.008
  6
CONTINUOUS
 10
1.34575
 20
1.26752
 30
 0
 11
1.34575
 21
1.33248
  0
LINE
  8
Engraving
 62
   255
 39
0.008
  6
CONTINUOUS
 10
1.34575
 20
1.33248
 30
 0
 11
1.34547
 21
1.33646
  0
LINE
  8
Engraving
 62
   255
 39
0.008
  6
CONTINUOUS
 10
1.34547
 20
1.33646
 30
 0
 11
1.34469
 21
1.34031
  0
LINE
  8
Engraving
 62
   255
 39
0.008
  6
CONTINUOUS
 10
1.34469
 20
1.34031
 30
 0
 11
1.34339
 21
1.34402
  0
LINE
  8
Engraving
 62
   255
 39
0.008
  6
CONTINUOUS
 10
1.34339
 20
1.34402
 30
 0
 11
1.34161
 21
1.34744
  0
LINE
  8
Engraving
 62
   255
 39
0.008
  6
CONTINUOUS
 10
1.34161
 20
1.34744
 30
 0
 11
1.33937
 21
1.35055
  0
LINE
  8
Engraving
 62
   255
 39
0.008
  6
CONTINUOUS
 10
1.33937
 20
1.35055
 30
 0
 11
1.33673
 21
1.35327
  0
LINE
  8
Engraving
 62
   255
 39
0.008
  6
CONTINUOUS
 10
1.33673
 20
1.35327
 30
 0
 11
1.33382
 21
1.35551
  0
LINE
  8
Engraving
 62
   255
 39
0.008
  6
CONTINUOUS
 10
1.33382
 20
1.35551
 30
 0
 11
1.33059
 21
1.35720
  0
LINE
  8
Engraving
 62
   255
 39
0.008
  6
CONTINUOUS
 10
1.33059
 20
1.35720
 30
 0
 11
1.32717
 21
1.35839
  0
LINE
  8
Engraving
 62
   255
 39
0.008
  6
CONTINUOUS
 10
1.32717
 20
1.35839
 30
 0
 11
1.32362
 21
1.35898
  0
LINE
  8
Engraving
 62
   255
 39
0.008
  6
CONTINUOUS
 10
1.32362
 20
1.35898
 30
 0
 11
1.32008
 21
1.35898
  0
LINE
  8
Engraving
 62
   255
 39
0.008
  6
CONTINUOUS
 10
1.32008
 20
1.35898
 30
 0
 11
1.31654
 21
1.35839
  0
LINE
  8
Engraving
 62
   255
 39
0.008
  6
CONTINUOUS
 10
1.31654
 20
1.35839
 30
 0
 11
1.31307
 21
1.35720
  0
LINE
  8
Engraving
 62
   255
 39
0.008
  6
CONTINUOUS
 10
1.31307
 20
1.35720
 30
 0
 11
1.30988
 21
1.35551
  0
LINE
  8
Engraving
 62
   255
 39
0.008
  6
CONTINUOUS
 10
1.30988
 20
1.35551
 30
 0
 11
1.30693
 21
1.35327
  0
LINE
  8
Engraving
 62
   255
 39
0.008
  6
CONTINUOUS
 10
1.30693
 20
1.35327
 30
 0
 11
1.30429
 21
1.35055
  0
LINE
  8
Engraving
 62
   255
 39
0.008
  6
CONTINUOUS
 10
1.30429
 20
1.35055
 30
 0
 11
1.30205
 21
1.34744
  0
LINE
  8
Engraving
 62
   255
 39
0.008
  6
CONTINUOUS
 10
1.30205
 20
1.34744
 30
 0
 11
1.30028
 21
1.34402
  0
LINE
  8
Engraving
 62
   255
 39
0.008
  6
CONTINUOUS
 10
1.30028
 20
1.34402
 30
 0
 11
1.29898
 21
1.34031
  0
LINE
  8
Engraving
 62
   255
 39
0.008
  6
CONTINUOUS
 10
1.29898
 20
1.34031
 30
 0
 11
1.29819
 21
1.33646
  0
LINE
  8
Engraving
 62
   255
 39
0.008
  6
CONTINUOUS
 10
1.29819
 20
1.33646
 30
 0
 11
1.29791
 21
1.33248
  0
LINE
  8
Engraving
 62
   255
 39
0.008
  6
CONTINUOUS
 10
1.29791
 20
1.33248
 30
 0
 11
1.29791
 21
1.33248
  0
LINE
  8
Engraving
 62
   255
 39
0.008
  6
CONTINUOUS
 10
1.29791
 20
1.33248
 30
 0
 11
1.29791
 21
1.26752
  0
LINE
  8
Engraving
 62
   255
 39
0.008
  6
CONTINUOUS
 10
1.37587
 20
1.35906
 30
 0
 11
1.37587
 21
1.26752
  0
LINE
  8
Engraving
 62
   255
 39
0.008
  6
CONTINUOUS
 10
1.37587
 20
1.26752
 30
 0
 11
1.37614
 21
1.26354
  0
LINE
  8
Engraving
 62
   255
 39
0.008
  6
CONTINUOUS
 10
1.37614
 20
1.26354
 30
 0
 11
1.37693
 21
1.25969
  0
LINE
  8
Engraving
 62
   255
 39
0.008
  6
CONTINUOUS
 10
1.37693
 20
1.25969
 30
 0
 11
1.37823
 21
1.25598
  0
LINE
  8
Engraving
 62
   255
 39
0.008
  6
CONTINUOUS
 10
1.37823
 20
1.25598
 30
 0
 11
1.38000
 21
1.25256
  0
LINE
  8
Engraving
 62
   255
 39
0.008
  6
CONTINUOUS
 10
1.38000
 20
1.25256
 30
 0
 11
1.38224
 21
1.24945
  0
LINE
  8
Engraving
 62
   255
 39
0.008
  6
CONTINUOUS
 10
1.38224
 20
1.24945
 30
 0
 11
1.38488
 21
1.24673
  0
LINE
  8
Engraving
 62
   255
 39
0.008
  6
CONTINUOUS
 10
1.38488
 20
1.24673
 30
 0
 11
1.38783
 21
1.24449
  0
LINE
  8
Engraving
 62
   255
 39
0.008
  6
CONTINUOUS
 10
1.38783
 20
1.24449
 30
 0
 11
1.39102
 21
1.24280
  0
LINE
  8
Engraving
 62
   255
 39
0.008
  6
CONTINUOUS
 10
1.39102
 20
1.24280
 30
 0
 11
1.39449
 21
1.24161
  0
LINE
  8
Engraving
 62
   255
 39
0.008
  6
CONTINUOUS
 10
1.39449
 20
1.24161
 30
 0
 11
1.39803
 21
1.24102
  0
LINE
  8
Engraving
 62
   255
 39
0.008
  6
CONTINUOUS
 10
1.39803
 20
1.24102
 30
 0
 11
1.40157
 21
1.24102
  0
LINE
  8
Engraving
 62
   255
 39
0.008
  6
CONTINUOUS
 10
1.40157
 20
1.24102
 30
 0
 11
1.40512
 21
1.24161
  0
LINE
  8
Engraving
 62
   255
 39
0.008
  6
CONTINUOUS
 10
1.40512
 20
1.24161
 30
 0
 11
1.40854
 21
1.24280
  0
LINE
  8
Engraving
 62
   255
 39
0.008
  6
CONTINUOUS
 10
1.40854
 20
1.24280
 30
 0
 11
1.41177
 21
1.24449
  0
LINE
  8
Engraving
 62
   255
 39
0.008
  6
CONTINUOUS
 10
1.41177
 20
1.24449
 30
 0
 11
1.41469
 21
1.24673
  0
LINE
  8
Engraving
 62
   255
 39
0.008
  6
CONTINUOUS
 10
1.41469
 20
1.24673
 30
 0
 11
1.41732
 21
1.24945
  0
LINE
  8
Engraving
 62
   255
 39
0.008
  6
CONTINUOUS
 10
1.41732
 20
1.24945
 30
 0
 11
1.41957
 21
1.25256
  0
LINE
  8
Engraving
 62
   255
 39
0.008
  6
CONTINUOUS
 10
1.41957
 20
1.25256
 30
 0
 11
1.42134
 21
1.25598
  0
LINE
  8
Engraving
 62
   255
 39
0.008
  6
CONTINUOUS
 10
1.42134
 20
1.25598
 30
 0
 11
1.42264
 21
1.25969
  0
LINE
  8
Engraving
 62
   255
 39
0.008
  6
CONTINUOUS
 10
1.42264
 20
1.25969
 30
 0
 11
1.42343
 21
1.26354
  0
LINE
  8
Engraving
 62
   255
 39
0.008
  6
CONTINUOUS
 10
1.42343
 20
1.26354
 30
 0
 11
1.42370
 21
1.26752
  0
LINE
  8
Engraving
 62
   255
 39
0.008
  6
CONTINUOUS
 10
1.42370
 20
1.26752
 30
 0
 11
1.42370
 21
1.26752
  0
LINE
  8
Engraving
 62
   255
 39
0.008
  6
CONTINUOUS
 10
1.42370
 20
1.26752
 30
 0
 11
1.42370
 21
1.35906
  0
LINE
  8
Engraving
 62
   255
 39
0.008
  6
CONTINUOUS
 10
1.45382
 20
1.35906
 30
 0
 11
1.50165
 21
1.35906
  0
LINE
  8
Engraving
 62
   255
 39
0.008
  6
CONTINUOUS
 10
1.50165
 20
1.35906
 30
 0
 11
1.47776
 21
1.35906
  0
LINE
  8
Engraving
 62
   255
 39
0.008
  6
CONTINUOUS
 10
1.47776
 20
1.35906
 30
 0
 11
1.47776
 21
1.24094
  0
LINE
  8
Engraving
 62
   255
 39
0.008
  6
CONTINUOUS
 10
0.40315
 20
0.33752
 30
 0
 11
0.40339
 21
0.33354
  0
LINE
  8
Engraving
 62
   255
 39
0.008
  6
CONTINUOUS
 10
0.40339
 20
0.33354
 30
 0
 11
0.40398
 21
0.32969
  0
LINE
  8
Engraving
 62
   255
 39
0.008
  6
CONTINUOUS
 10
0.40398
 20
0.32969
 30
 0
 11
0.40500
 21
0.32598
  0
LINE
  8
Engraving
 62
   255
 39
0.008
  6
CONTINUOUS
 10
0.40500
 20
0.32598
 30
 0
 11
0.40638
 21
0.32256
  0
LINE
  8
Engraving
 62
   255
 39
0.008
  6
CONTINUOUS
 10
0.40638
 20
0.32256
 30
 0
 11
0.40811
 21
0.31945
  0
LINE
  8
Engraving
 62
   255
 39
0.008
  6
CONTINUOUS
 10
0.40811
 20
0.31945
 30
 0
 11
0.41016
 21
0.31673
  0
LINE
  8
Engraving
 62
   255
 39
0.008
  6
CONTINUOUS
 10
0.41016
 20
0.31673
 30
 0
 11
0.41248
 21
0.31449
  0
LINE
  8
Engraving
 62
   255
 39
0.008
  6
CONTINUOUS
 10
0.41248
 20
0.31449
 30
 0
 11
0.41496
 21
0.31280
  0
LINE
  8
Engraving
 62
   255
 39
0.008
  6
CONTINUOUS
 10
0.41496
 20
0.31280
 30
 0
 11
0.41760
 21
0.31161
  0
LINE
  8
Engraving
 62
   255
 39
0.008
  6
CONTINUOUS
 10
0.41760
 20
0.31161
 30
 0
 11
0.42035
 21
0.31102
  0
LINE
  8
Engraving
 62
   255
 39
0.008
  6
CONTINUOUS
 10
0.42035
 20
0.31102
 30
 0
 11
0.42311
 21
0.31102
  0
LINE
  8
Engraving
 62
   255
 39
0.008
  6
CONTINUOUS
 10
0.42311
 20
0.31102
 30
 0
 11
0.42587
 21
0.31161
  0
LINE
  8
Engraving
 62
   255
 39
0.008
  6
CONTINUOUS
 10
0.42587
 20
0.31161
 30
 0
 11
0.42854
 21
0.31280
  0
LINE
  8
Engraving
 62
   255
 39
0.008
  6
CONTINUOUS
 10
0.42854
 20
0.31280
 30
 0
 11
0.43102
 21
0.31449
  0
LINE
  8
Engraving
 62
   255
 39
0.008
  6
CONTINUOUS
 10
0.43102
 20
0.31449
 30
 0
 11
0.43335
 21
0.31673
  0
LINE
  8
Engraving
 62
   255
 39
0.008
  6
CONTINUOUS
 10
0.43335
 20
0.31673
 30
 0
 11
0.43539
 21
0.31945
  0
LINE
  8
Engraving
 62
   255
 39
0.008
  6
CONTINUOUS
 10
0.43539
 20
0.31945
 30
 0
 11
0.43713
 21
0.32256
  0
LINE
  8
Engraving
 62
   255
 39
0.008
  6
CONTINUOUS
 10
0.43713
 20
0.32256
 30
 0
 11
0.43850
 21
0.32598
  0
LINE
  8
Engraving
 62
   255
 39
0.008
  6
CONTINUOUS
 10
0.43850
 20
0.32598
 30
 0
 11
0.43953
 21
0.32969
  0
LINE
  8
Engraving
 62
   255
 39
0.008
  6
CONTINUOUS
 10
0.43953
 20
0.32969
 30
 0
 11
0.44012
 21
0.33354
  0
LINE
  8
Engraving
 62
   255
 39
0.008
  6
CONTINUOUS
 10
0.44012
 20
0.33354
 30
 0
 11
0.44035
 21
0.33752
  0
LINE
  8
Engraving
 62
   255
 39
0.008
  6
CONTINUOUS
 10
0.44035
 20
0.33752
 30
 0
 11
0.44035
 21
0.33752
  0
LINE
  8
Engraving
 62
   255
 39
0.008
  6
CONTINUOUS
 10
0.44035
 20
0.33752
 30
 0
 11
0.44035
 21
0.40248
  0
LINE
  8
Engraving
 62
   255
 39
0.008
  6
CONTINUOUS
 10
0.44035
 20
0.40248
 30
 0
 11
0.44012
 21
0.40646
  0
LINE
  8
Engraving
 62
   255
 39
0.008
  6
CONTINUOUS
 10
0.44012
 20
0.40646
 30
 0
 11
0.43953
 21
0.41031
  0
LINE
  8
Engraving
 62
   255
 39
0.008
  6
CONTINUOUS
 10
0.43953
 20
0.41031
 30
 0
 11
0.43850
 21
0.41402
  0
LINE
  8
Engraving
 62
   255
 39
0.008
  6
CONTINUOUS
 10
0.43850
 20
0.41402
 30
 0
 11
0.43713
 21
0.41744
  0
LINE
  8
Engraving
 62
   255
 39
0.008
  6
CONTINUOUS
 10
0.43713
 20
0.41744
 30
 0
 11
0.43539
 21
0.42055
  0
LINE
  8
Engraving
 62
   255
 39
0.008
  6
CONTINUOUS
 10
0.43539
 20
0.42055
 30
 0
 11
0.43335
 21
0.42327
  0
LINE
  8
Engraving
 62
   255
 39
0.008
  6
CONTINUOUS
 10
0.43335
 20
0.42327
 30
 0
 11
0.43106
 21
0.42551
  0
LINE
  8
Engraving
 62
   255
 39
0.008
  6
CONTINUOUS
 10
0.43106
 20
0.42551
 30
 0
 11
0.42854
 21
0.42720
  0
LINE
  8
Engraving
 62
   255
 39
0.008
  6
CONTINUOUS
 10
0.42854
 20
0.42720
 30
 0
 11
0.42587
 21
0.42839
  0
LINE
  8
Engraving
 62
   255
 39
0.008
  6
CONTINUOUS
 10
0.42587
 20
0.42839
 30
 0
 11
0.42311
 21
0.42898
  0
LINE
  8
Engraving
 62
   255
 39
0.008
  6
CONTINUOUS
 10
0.42311
 20
0.42898
 30
 0
 11
0.42035
 21
0.42898
  0
LINE
  8
Engraving
 62
   255
 39
0.008
  6
CONTINUOUS
 10
0.42035
 20
0.42898
 30
 0
 11
0.41760
 21
0.42839
  0
LINE
  8
Engraving
 62
   255
 39
0.008
  6
CONTINUOUS
 10
0.41760
 20
0.42839
 30
 0
 11
0.41496
 21
0.42720
  0
LINE
  8
Engraving
 62
   255
 39
0.008
  6
CONTINUOUS
 10
0.41496
 20
0.42720
 30
 0
 11
0.41248
 21
0.42551
  0
LINE
  8
Engraving
 62
   255
 39
0.008
  6
CONTINUOUS
 10
0.41248
 20
0.42551
 30
 0
 11
0.41016
 21
0.42327
  0
LINE
  8
Engraving
 62
   255
 39
0.008
  6
CONTINUOUS
 10
0.41016
 20
0.42327
 30
 0
 11
0.40811
 21
0.42055
  0
LINE
  8
Engraving
 62
   255
 39
0.008
  6
CONTINUOUS
 10
0.40811
 20
0.42055
 30
 0
 11
0.40638
 21
0.41744
  0
LINE
  8
Engraving
 62
   255
 39
0.008
  6
CONTINUOUS
 10
0.40638
 20
0.41744
 30
 0
 11
0.40500
 21
0.41402
  0
LINE
  8
Engraving
 62
   255
 39
0.008
  6
CONTINUOUS
 10
0.40500
 20
0.41402
 30
 0
 11
0.40398
 21
0.41031
  0
LINE
  8
Engraving
 62
   255
 39
0.008
  6
CONTINUOUS
 10
0.40398
 20
0.41031
 30
 0
 11
0.40339
 21
0.40646
  0
LINE
  8
Engraving
 62
   255
 39
0.008
  6
CONTINUOUS
 10
0.40339
 20
0.40646
 30
 0
 11
0.40315
 21
0.40248
  0
LINE
  8
Engraving
 62
   255
 39
0.008
  6
CONTINUOUS
 10
0.40315
 20
0.40248
 30
 0
 11
0.40315
 21
0.40248
  0
LINE
  8
Engraving
 62
   255
 39
0.008
  6
CONTINUOUS
 10
0.40315
 20
0.40248
 30
 0
 11
0.40315
 21
0.33752
  0
LINE
  8
Engraving
 62
   255
 39
0.008
  6
CONTINUOUS
 10
0.46378
 20
0.31094
 30
 0
 11
0.48858
 21
0.42906
  0
LINE
  8
Engraving
 62
   255
 39
0.008
  6
CONTINUOUS
 10
0.48858
 20
0.42906
 30
 0
 11
0.51339
 21
0.31094
  0
LINE
  8
Engraving
 62
   255
 39
0.008
  6
CONTINUOUS
 10
0.47205
 20
0.34638
 30
 0
 11
0.50512
 21
0.34638
  0
LINE
  8
Engraving
 62
   255
 39
0.008
  6
CONTINUOUS
 10
0.53681
 20
0.42906
 30
 0
 11
0.53681
 21
0.31094
  0
LINE
  8
Engraving
 62
   255
 39
0.008
  6
CONTINUOUS
 10
0.53681
 20
0.31094
 30
 0
 11
0.53681
 21
0.35228
  0
LINE
  8
Engraving
 62
   255
 39
0.008
  6
CONTINUOUS
 10
0.53681
 20
0.35228
 30
 0
 11
0.57402
 21
0.42906
  0
LINE
  8
Engraving
 62
   255
 39
0.008
  6
CONTINUOUS
 10
0.55130
 20
0.38181
 30
 0
 11
0.57402
 21
0.31094
  0
LINE
  8
Engraving
 62
   255
 39
0.008
  6
CONTINUOUS
 10
0.59673
 20
0.42906
 30
 0
 11
0.59673
 21
0.31094
  0
LINE
  8
Engraving
 62
   255
 39
0.008
  6
CONTINUOUS
 10
0.59673
 20
0.31094
 30
 0
 11
0.62362
 21
0.31094
  0
LINE
  8
Engraving
 62
   255
 39
0.008
  6
CONTINUOUS
 10
0.68425
 20
0.42906
 30
 0
 11
0.64705
 21
0.42906
  0
LINE
  8
Engraving
 62
   255
 39
0.008
  6
CONTINUOUS
 10
0.64705
 20
0.42906
 30
 0
 11
0.64705
 21
0.31094
  0
LINE
  8
Engraving
 62
   255
 39
0.008
  6
CONTINUOUS
 10
0.64705
 20
0.31094
 30
 0
 11
0.68425
 21
0.31094
  0
LINE
  8
Engraving
 62
   255
 39
0.008
  6
CONTINUOUS
 10
0.64705
 20
0.37000
 30
 0
 11
0.67803
 21
0.37000
  0
LINE
  8
Engraving
 62
   255
 39
0.008
  6
CONTINUOUS
 10
0.70768
 20
0.42906
 30
 0
 11
0.72630
 21
0.35524
  0
LINE
  8
Engraving
 62
   255
 39
0.008
  6
CONTINUOUS
 10
0.72630
 20
0.35524
 30
 0
 11
0.72630
 21
0.31094
  0
LINE
  8
Engraving
 62
   255
 39
0.008
  6
CONTINUOUS
 10
0.72630
 20
0.31094
 30
 0
 11
0.72630
 21
0.35524
  0
LINE
  8
Engraving
 62
   255
 39
0.008
  6
CONTINUOUS
 10
0.72630
 20
0.35524
 30
 0
 11
0.74488
 21
0.42906
  0
LINE
  8
Engraving
 62
   255
 39
0.008
  6
CONTINUOUS
 10
0.83445
 20
0.34047
 30
 0
 11
0.83469
 21
0.33606
  0
LINE
  8
Engraving
 62
   255
 39
0.008
  6
CONTINUOUS
 10
0.83469
 20
0.33606
 30
 0
 11
0.83535
 21
0.33177
  0
LINE
  8
Engraving
 62
   255
 39
0.008
  6
CONTINUOUS
 10
0.83535
 20
0.33177
 30
 0
 11
0.83650
 21
0.32768
  0
LINE
  8
Engraving
 62
   255
 39
0.008
  6
CONTINUOUS
 10
0.83650
 20
0.32768
 30
 0
 11
0.83803
 21
0.32386
  0
LINE
  8
Engraving
 62
   255
 39
0.008
  6
CONTINUOUS
 10
0.83803
 20
0.32386
 30
 0
 11
0.83996
 21
0.32039
  0
LINE
  8
Engraving
 62
   255
 39
0.008
  6
CONTINUOUS
 10
0.83996
 20
0.32039
 30
 0
 11
0.84220
 21
0.31740
  0
LINE
  8
Engraving
 62
   255
 39
0.008
  6
CONTINUOUS
 10
0.84220
 20
0.31740
 30
 0
 11
0.84476
 21
0.31488
  0
LINE
  8
Engraving
 62
   255
 39
0.008
  6
CONTINUOUS
 10
0.84476
 20
0.31488
 30
 0
 11
0.84756
 21
0.31299
  0
LINE
  8
Engraving
 62
   255
 39
0.008
  6
CONTINUOUS
 10
0.84756
 20
0.31299
 30
 0
 11
0.85051
 21
0.31169
  0
LINE
  8
Engraving
 62
   255
 39
0.008
  6
CONTINUOUS
 10
0.85051
 20
0.31169
 30
 0
 11
0.85358
 21
0.31102
  0
LINE
  8
Engraving
 62
   255
 39
0.008
  6
CONTINUOUS
 10
0.85358
 20
0.31102
 30
 0
 11
0.85665
 21
0.31102
  0
LINE
  8
Engraving
 62
   255
 39
0.008
  6
CONTINUOUS
 10
0.85665
 20
0.31102
 30
 0
 11
0.85972
 21
0.31169
  0
LINE
  8
Engraving
 62
   255
 39
0.008
  6
CONTINUOUS
 10
0.85972
 20
0.31169
 30
 0
 11
0.86268
 21
0.31299
  0
LINE
  8
Engraving
 62
   255
 39
0.008
  6
CONTINUOUS
 10
0.86268
 20
0.31299
 30
 0
 11
0.86543
 21
0.31488
  0
LINE
  8
Engraving
 62
   255
 39
0.008
  6
CONTINUOUS
 10
0.86543
 20
0.31488
 30
 0
 11
0.86803
 21
0.31740
  0
LINE
  8
Engraving
 62
   255
 39
0.008
  6
CONTINUOUS
 10
0.86803
 20
0.31740
 30
 0
 11
0.87028
 21
0.32039
  0
LINE
  8
Engraving
 62
   255
 39
0.008
  6
CONTINUOUS
 10
0.87028
 20
0.32039
 30
 0
 11
0.87220
 21
0.32386
  0
LINE
  8
Engraving
 62
   255
 39
0.008
  6
CONTINUOUS
 10
0.87220
 20
0.32386
 30
 0
 11
0.87374
 21
0.32768
  0
LINE
  8
Engraving
 62
   255
 39
0.008
  6
CONTINUOUS
 10
0.87374
 20
0.32768
 30
 0
 11
0.87488
 21
0.33177
  0
LINE
  8
Engraving
 62
   255
 39
0.008
  6
CONTINUOUS
 10
0.87488
 20
0.33177
 30
 0
 11
0.87555
 21
0.33606
  0
LINE
  8
Engraving
 62
   255
 39
0.008
  6
CONTINUOUS
 10
0.87555
 20
0.33606
 30
 0
 11
0.87579
 21
0.34047
  0
LINE
  8
Engraving
 62
   255
 39
0.008
  6
CONTINUOUS
 10
0.87579
 20
0.34047
 30
 0
 11
0.87579
 21
0.34047
  0
LINE
  8
Engraving
 62
   255
 39
0.008
  6
CONTINUOUS
 10
0.87579
 20
0.34047
 30
 0
 11
0.87559
 21
0.34469
  0
LINE
  8
Engraving
 62
   255
 39
0.008
  6
CONTINUOUS
 10
0.87559
 20
0.34469
 30
 0
 11
0.87500
 21
0.34882
  0
LINE
  8
Engraving
 62
   255
 39
0.008
  6
CONTINUOUS
 10
0.87500
 20
0.34882
 30
 0
 11
0.87394
 21
0.35276
  0
LINE
  8
Engraving
 62
   255
 39
0.008
  6
CONTINUOUS
 10
0.87394
 20
0.35276
 30
 0
 11
0.87252
 21
0.35646
  0
LINE
  8
Engraving
 62
   255
 39
0.008
  6
CONTINUOUS
 10
0.87252
 20
0.35646
 30
 0
 11
0.87079
 21
0.35984
  0
LINE
  8
Engraving
 62
   255
 39
0.008
  6
CONTINUOUS
 10
0.87079
 20
0.35984
 30
 0
 11
0.86866
 21
0.36283
  0
LINE
  8
Engraving
 62
   255
 39
0.008
  6
CONTINUOUS
 10
0.86866
 20
0.36283
 30
 0
 11
0.86630
 21
0.36535
  0
LINE
  8
Engraving
 62
   255
 39
0.008
  6
CONTINUOUS
 10
0.86630
 20
0.36535
 30
 0
 11
0.86370
 21
0.36736
  0
LINE
  8
Engraving
 62
   255
 39
0.008
  6
CONTINUOUS
 10
0.86370
 20
0.36736
 30
 0
 11
0.86094
 21
0.36886
  0
LINE
  8
Engraving
 62
   255
 39
0.008
  6
CONTINUOUS
 10
0.86094
 20
0.36886
 30
 0
 11
0.85807
 21
0.36972
  0
LINE
  8
Engraving
 62
   255
 39
0.008
  6
CONTINUOUS
 10
0.85807
 20
0.36972
 30
 0
 11
0.85512
 21
0.37000
  0
LINE
  8
Engraving
 62
   255
 39
0.008
  6
CONTINUOUS
 10
0.85512
 20
0.37000
 30
 0
 11
0.85512
 21
0.37000
  0
LINE
  8
Engraving
 62
   255
 39
0.008
  6
CONTINUOUS
 10
0.85512
 20
0.37000
 30
 0
 11
0.85205
 21
0.37031
  0
LINE
  8
Engraving
 62
   255
 39
0.008
  6
CONTINUOUS
 10
0.85205
 20
0.37031
 30
 0
 11
0.84902
 21
0.37130
  0
LINE
  8
Engraving
 62
   255
 39
0.008
  6
CONTINUOUS
 10
0.84902
 20
0.37130
 30
 0
 11
0.84614
 21
0.37291
  0
LINE
  8
Engraving
 62
   255
 39
0.008
  6
CONTINUOUS
 10
0.84614
 20
0.37291
 30
 0
 11
0.84350
 21
0.37512
  0
LINE
  8
Engraving
 62
   255
 39
0.008
  6
CONTINUOUS
 10
0.84350
 20
0.37512
 30
 0
 11
0.84106
 21
0.37787
  0
LINE
  8
Engraving
 62
   255
 39
0.008
  6
CONTINUOUS
 10
0.84106
 20
0.37787
 30
 0
 11
0.83898
 21
0.38110
  0
LINE
  8
Engraving
 62
   255
 39
0.008
  6
CONTINUOUS
 10
0.83898
 20
0.38110
 30
 0
 11
0.83720
 21
0.38476
  0
LINE
  8
Engraving
 62
   255
 39
0.008
  6
CONTINUOUS
 10
0.83720
 20
0.38476
 30
 0
 11
0.83587
 21
0.38874
  0
LINE
  8
Engraving
 62
   255
 39
0.008
  6
CONTINUOUS
 10
0.83587
 20
0.38874
 30
 0
 11
0.83496
 21
0.39295
  0
LINE
  8
Engraving
 62
   255
 39
0.008
  6
CONTINUOUS
 10
0.83496
 20
0.39295
 30
 0
 11
0.83449
 21
0.39732
  0
LINE
  8
Engraving
 62
   255
 39
0.008
  6
CONTINUOUS
 10
0.83449
 20
0.39732
 30
 0
 11
0.83449
 21
0.40173
  0
LINE
  8
Engraving
 62
   255
 39
0.008
  6
CONTINUOUS
 10
0.83449
 20
0.40173
 30
 0
 11
0.83496
 21
0.40610
  0
LINE
  8
Engraving
 62
   255
 39
0.008
  6
CONTINUOUS
 10
0.83496
 20
0.40610
 30
 0
 11
0.83587
 21
0.41031
  0
LINE
  8
Engraving
 62
   255
 39
0.008
  6
CONTINUOUS
 10
0.83587
 20
0.41031
 30
 0
 11
0.83720
 21
0.41429
  0
LINE
  8
Engraving
 62
   255
 39
0.008
  6
CONTINUOUS
 10
0.83720
 20
0.41429
 30
 0
 11
0.83898
 21
0.41795
  0
LINE
  8
Engraving
 62
   255
 39
0.008
  6
CONTINUOUS
 10
0.83898
 20
0.41795
 30
 0
 11
0.84106
 21
0.42118
  0
LINE
  8
Engraving
 62
   255
 39
0.008
  6
CONTINUOUS
 10
0.84106
 20
0.42118
 30
 0
 11
0.84350
 21
0.42394
  0
LINE
  8
Engraving
 62
   255
 39
0.008
  6
CONTINUOUS
 10
0.84350
 20
0.42394
 30
 0
 11
0.84614
 21
0.42614
  0
LINE
  8
Engraving
 62
   255
 39
0.008
  6
CONTINUOUS
 10
0.84614
 20
0.42614
 30
 0
 11
0.84902
 21
0.42776
  0
LINE
  8
Engraving
 62
   255
 39
0.008
  6
CONTINUOUS
 10
0.84902
 20
0.42776
 30
 0
 11
0.85205
 21
0.42874
  0
LINE
  8
Engraving
 62
   255
 39
0.008
  6
CONTINUOUS
 10
0.85205
 20
0.42874
 30
 0
 11
0.85512
 21
0.42906
  0
LINE
  8
Engraving
 62
   255
 39
0.008
  6
CONTINUOUS
 10
0.85512
 20
0.42906
 30
 0
 11
0.85512
 21
0.42906
  0
LINE
  8
Engraving
 62
   255
 39
0.008
  6
CONTINUOUS
 10
0.85512
 20
0.42906
 30
 0
 11
0.85811
 21
0.42878
  0
LINE
  8
Engraving
 62
   255
 39
0.008
  6
CONTINUOUS
 10
0.85811
 20
0.42878
 30
 0
 11
0.86106
 21
0.42783
  0
LINE
  8
Engraving
 62
   255
 39
0.008
  6
CONTINUOUS
 10
0.86106
 20
0.42783
 30
 0
 11
0.86390
 21
0.42630
  0
LINE
  8
Engraving
 62
   255
 39
0.008
  6
CONTINUOUS
 10
0.86390
 20
0.42630
 30
 0
 11
0.86654
 21
0.42421
  0
LINE
  8
Engraving
 62
   255
 39
0.008
  6
CONTINUOUS
 10
0.86654
 20
0.42421
 30
 0
 11
0.86894
 21
0.42157
  0
LINE
  8
Engraving
 62
   255
 39
0.008
  6
CONTINUOUS
 10
0.86894
 20
0.42157
 30
 0
 11
0.87102
 21
0.41850
  0
LINE
  8
Engraving
 62
   255
 39
0.008
  6
CONTINUOUS
 10
0.87102
 20
0.41850
 30
 0
 11
0.87280
 21
0.41496
  0
LINE
  8
Engraving
 62
   255
 39
0.008
  6
CONTINUOUS
 10
0.87280
 20
0.41496
 30
 0
 11
0.87417
 21
0.41114
  0
LINE
  8
Engraving
 62
   255
 39
0.008
  6
CONTINUOUS
 10
0.87417
 20
0.41114
 30
 0
 11
0.87512
 21
0.40705
  0
LINE
  8
Engraving
 62
   255
 39
0.008
  6
CONTINUOUS
 10
0.87512
 20
0.40705
 30
 0
 11
0.87567
 21
0.40283
  0
LINE
  8
Engraving
 62
   255
 39
0.008
  6
CONTINUOUS
 10
0.87567
 20
0.40283
 30
 0
 11
0.87579
 21
0.39953
  0
LINE
  8
Engraving
 62
   255
 39
0.008
  6
CONTINUOUS
 10
0.89921
 20
0.42906
 30
 0
 11
0.91783
 21
0.35524
  0
LINE
  8
Engraving
 62
   255
 39
0.008
  6
CONTINUOUS
 10
0.91783
 20
0.35524
 30
 0
 11
0.91783
 21
0.31094
  0
LINE
  8
Engraving
 62
   255
 39
0.008
  6
CONTINUOUS
 10
0.91783
 20
0.31094
 30
 0
 11
0.91783
 21
0.35524
  0
LINE
  8
Engraving
 62
   255
 39
0.008
  6
CONTINUOUS
 10
0.91783
 20
0.35524
 30
 0
 11
0.93642
 21
0.42906
  0
LINE
  8
Engraving
 62
   255
 39
0.008
  6
CONTINUOUS
 10
0.95984
 20
0.31094
 30
 0
 11
0.95984
 21
0.42906
  0
LINE
  8
Engraving
 62
   255
 39
0.008
  6
CONTINUOUS
 10
0.95984
 20
0.42906
 30
 0
 11
0.99705
 21
0.31094
  0
LINE
  8
Engraving
 62
   255
 39
0.008
  6
CONTINUOUS
 10
0.99705
 20
0.31094
 30
 0
 11
0.99705
 21
0.42906
  0
LINE
  8
Engraving
 62
   255
 39
0.008
  6
CONTINUOUS
 10
1.02047
 20
0.42906
 30
 0
 11
1.05768
 21
0.42906
  0
LINE
  8
Engraving
 62
   255
 39
0.008
  6
CONTINUOUS
 10
1.05768
 20
0.42906
 30
 0
 11
1.03909
 21
0.42906
  0
LINE
  8
Engraving
 62
   255
 39
0.008
  6
CONTINUOUS
 10
1.03909
 20
0.42906
 30
 0
 11
1.03909
 21
0.31094
  0
LINE
  8
Engraving
 62
   255
 39
0.008
  6
CONTINUOUS
 10
1.08110
 20
0.42906
 30
 0
 11
1.08110
 21
0.31094
  0
LINE
  8
Engraving
 62
   255
 39
0.008
  6
CONTINUOUS
 10
1.08110
 20
0.37000
 30
 0
 11
1.11831
 21
0.37000
  0
LINE
  8
Engraving
 62
   255
 39
0.008
  6
CONTINUOUS
 10
1.11831
 20
0.31094
 30
 0
 11
1.11831
 21
0.42906
  0
LINE
  8
Engraving
 62
   255
 39
0.008
  6
CONTINUOUS
 10
1.17894
 20
0.42906
 30
 0
 11
1.14173
 21
0.42906
  0
LINE
  8
Engraving
 62
   255
 39
0.008
  6
CONTINUOUS
 10
1.14173
 20
0.42906
 30
 0
 11
1.14173
 21
0.31094
  0
LINE
  8
Engraving
 62
   255
 39
0.008
  6
CONTINUOUS
 10
1.14173
 20
0.31094
 30
 0
 11
1.17894
 21
0.31094
  0
LINE
  8
Engraving
 62
   255
 39
0.008
  6
CONTINUOUS
 10
1.14173
 20
0.37000
 30
 0
 11
1.17272
 21
0.37000
  0
LINE
  8
Engraving
 62
   255
 39
0.008
  6
CONTINUOUS
 10
1.20236
 20
0.34047
 30
 0
 11
1.20260
 21
0.33606
  0
LINE
  8
Engraving
 62
   255
 39
0.008
  6
CONTINUOUS
 10
1.20260
 20
0.33606
 30
 0
 11
1.20327
 21
0.33177
  0
LINE
  8
Engraving
 62
   255
 39
0.008
  6
CONTINUOUS
 10
1.20327
 20
0.33177
 30
 0
 11
1.20441
 21
0.32768
  0
LINE
  8
Engraving
 62
   255
 39
0.008
  6
CONTINUOUS
 10
1.20441
 20
0.32768
 30
 0
 11
1.20594
 21
0.32386
  0
LINE
  8
Engraving
 62
   255
 39
0.008
  6
CONTINUOUS
 10
1.20594
 20
0.32386
 30
 0
 11
1.20787
 21
0.32039
  0
LINE
  8
Engraving
 62
   255
 39
0.008
  6
CONTINUOUS
 10
1.20787
 20
0.32039
 30
 0
 11
1.21012
 21
0.31740
  0
LINE
  8
Engraving
 62
   255
 39
0.008
  6
CONTINUOUS
 10
1.21012
 20
0.31740
 30
 0
 11
1.21272
 21
0.31488
  0
LINE
  8
Engraving
 62
   255
 39
0.008
  6
CONTINUOUS
 10
1.21272
 20
0.31488
 30
 0
 11
1.21547
 21
0.31299
  0
LINE
  8
Engraving
 62
   255
 39
0.008
  6
CONTINUOUS
 10
1.21547
 20
0.31299
 30
 0
 11
1.21843
 21
0.31169
  0
LINE
  8
Engraving
 62
   255
 39
0.008
  6
CONTINUOUS
 10
1.21843
 20
0.31169
 30
 0
 11
1.22150
 21
0.31102
  0
LINE
  8
Engraving
 62
   255
 39
0.008
  6
CONTINUOUS
 10
1.22150
 20
0.31102
 30
 0
 11
1.22457
 21
0.31102
  0
LINE
  8
Engraving
 62
   255
 39
0.008
  6
CONTINUOUS
 10
1.22457
 20
0.31102
 30
 0
 11
1.22764
 21
0.31169
  0
LINE
  8
Engraving
 62
   255
 39
0.008
  6
CONTINUOUS
 10
1.22764
 20
0.31169
 30
 0
 11
1.23059
 21
0.31299
  0
LINE
  8
Engraving
 62
   255
 39
0.008
  6
CONTINUOUS
 10
1.23059
 20
0.31299
 30
 0
 11
1.23339
 21
0.31488
  0
LINE
  8
Engraving
 62
   255
 39
0.008
  6
CONTINUOUS
 10
1.23339
 20
0.31488
 30
 0
 11
1.23594
 21
0.31740
  0
LINE
  8
Engraving
 62
   255
 39
0.008
  6
CONTINUOUS
 10
1.23594
 20
0.31740
 30
 0
 11
1.23819
 21
0.32039
  0
LINE
  8
Engraving
 62
   255
 39
0.008
  6
CONTINUOUS
 10
1.23819
 20
0.32039
 30
 0
 11
1.24012
 21
0.32386
  0
LINE
  8
Engraving
 62
   255
 39
0.008
  6
CONTINUOUS
 10
1.24012
 20
0.32386
 30
 0
 11
1.24165
 21
0.32768
  0
LINE
  8
Engraving
 62
   255
 39
0.008
  6
CONTINUOUS
 10
1.24165
 20
0.32768
 30
 0
 11
1.24280
 21
0.33177
  0
LINE
  8
Engraving
 62
   255
 39
0.008
  6
CONTINUOUS
 10
1.24280
 20
0.33177
 30
 0
 11
1.24346
 21
0.33606
  0
LINE
  8
Engraving
 62
   255
 39
0.008
  6
CONTINUOUS
 10
1.24346
 20
0.33606
 30
 0
 11
1.24370
 21
0.34047
  0
LINE
  8
Engraving
 62
   255
 39
0.008
  6
CONTINUOUS
 10
1.24370
 20
0.34047
 30
 0
 11
1.24370
 21
0.34047
  0
LINE
  8
Engraving
 62
   255
 39
0.008
  6
CONTINUOUS
 10
1.24370
 20
0.34047
 30
 0
 11
1.24350
 21
0.34469
  0
LINE
  8
Engraving
 62
   255
 39
0.008
  6
CONTINUOUS
 10
1.24350
 20
0.34469
 30
 0
 11
1.24291
 21
0.34882
  0
LINE
  8
Engraving
 62
   255
 39
0.008
  6
CONTINUOUS
 10
1.24291
 20
0.34882
 30
 0
 11
1.24185
 21
0.35276
  0
LINE
  8
Engraving
 62
   255
 39
0.008
  6
CONTINUOUS
 10
1.24185
 20
0.35276
 30
 0
 11
1.24043
 21
0.35646
  0
LINE
  8
Engraving
 62
   255
 39
0.008
  6
CONTINUOUS
 10
1.24043
 20
0.35646
 30
 0
 11
1.23870
 21
0.35984
  0
LINE
  8
Engraving
 62
   255
 39
0.008
  6
CONTINUOUS
 10
1.23870
 20
0.35984
 30
 0
 11
1.23657
 21
0.36283
  0
LINE
  8
Engraving
 62
   255
 39
0.008
  6
CONTINUOUS
 10
1.23657
 20
0.36283
 30
 0
 11
1.23421
 21
0.36535
  0
LINE
  8
Engraving
 62
   255
 39
0.008
  6
CONTINUOUS
 10
1.23421
 20
0.36535
 30
 0
 11
1.23161
 21
0.36736
  0
LINE
  8
Engraving
 62
   255
 39
0.008
  6
CONTINUOUS
 10
1.23161
 20
0.36736
 30
 0
 11
1.22886
 21
0.36886
  0
LINE
  8
Engraving
 62
   255
 39
0.008
  6
CONTINUOUS
 10
1.22886
 20
0.36886
 30
 0
 11
1.22598
 21
0.36972
  0
LINE
  8
Engraving
 62
   255
 39
0.008
  6
CONTINUOUS
 10
1.22598
 20
0.36972
 30
 0
 11
1.22303
 21
0.37000
  0
LINE
  8
Engraving
 62
   255
 39
0.008
  6
CONTINUOUS
 10
1.22303
 20
0.37000
 30
 0
 11
1.22303
 21
0.37000
  0
LINE
  8
Engraving
 62
   255
 39
0.008
  6
CONTINUOUS
 10
1.22303
 20
0.37000
 30
 0
 11
1.21996
 21
0.37031
  0
LINE
  8
Engraving
 62
   255
 39
0.008
  6
CONTINUOUS
 10
1.21996
 20
0.37031
 30
 0
 11
1.21693
 21
0.37130
  0
LINE
  8
Engraving
 62
   255
 39
0.008
  6
CONTINUOUS
 10
1.21693
 20
0.37130
 30
 0
 11
1.21409
 21
0.37291
  0
LINE
  8
Engraving
 62
   255
 39
0.008
  6
CONTINUOUS
 10
1.21409
 20
0.37291
 30
 0
 11
1.21142
 21
0.37512
  0
LINE
  8
Engraving
 62
   255
 39
0.008
  6
CONTINUOUS
 10
1.21142
 20
0.37512
 30
 0
 11
1.20898
 21
0.37787
  0
LINE
  8
Engraving
 62
   255
 39
0.008
  6
CONTINUOUS
 10
1.20898
 20
0.37787
 30
 0
 11
1.20689
 21
0.38110
  0
LINE
  8
Engraving
 62
   255
 39
0.008
  6
CONTINUOUS
 10
1.20689
 20
0.38110
 30
 0
 11
1.20512
 21
0.38476
  0
LINE
  8
Engraving
 62
   255
 39
0.008
  6
CONTINUOUS
 10
1.20512
 20
0.38476
 30
 0
 11
1.20378
 21
0.38874
  0
LINE
  8
Engraving
 62
   255
 39
0.008
  6
CONTINUOUS
 10
1.20378
 20
0.38874
 30
 0
 11
1.20287
 21
0.39295
  0
LINE
  8
Engraving
 62
   255
 39
0.008
  6
CONTINUOUS
 10
1.20287
 20
0.39295
 30
 0
 11
1.20240
 21
0.39732
  0
LINE
  8
Engraving
 62
   255
 39
0.008
  6
CONTINUOUS
 10
1.20240
 20
0.39732
 30
 0
 11
1.20240
 21
0.40173
  0
LINE
  8
Engraving
 62
   255
 39
0.008
  6
CONTINUOUS
 10
1.20240
 20
0.40173
 30
 0
 11
1.20287
 21
0.40610
  0
LINE
  8
Engraving
 62
   255
 39
0.008
  6
CONTINUOUS
 10
1.20287
 20
0.40610
 30
 0
 11
1.20378
 21
0.41031
  0
LINE
  8
Engraving
 62
   255
 39
0.008
  6
CONTINUOUS
 10
1.20378
 20
0.41031
 30
 0
 11
1.20512
 21
0.41429
  0
LINE
  8
Engraving
 62
   255
 39
0.008
  6
CONTINUOUS
 10
1.20512
 20
0.41429
 30
 0
 11
1.20689
 21
0.41795
  0
LINE
  8
Engraving
 62
   255
 39
0.008
  6
CONTINUOUS
 10
1.20689
 20
0.41795
 30
 0
 11
1.20898
 21
0.42118
  0
LINE
  8
Engraving
 62
   255
 39
0.008
  6
CONTINUOUS
 10
1.20898
 20
0.42118
 30
 0
 11
1.21142
 21
0.42394
  0
LINE
  8
Engraving
 62
   255
 39
0.008
  6
CONTINUOUS
 10
1.21142
 20
0.42394
 30
 0
 11
1.21409
 21
0.42614
  0
LINE
  8
Engraving
 62
   255
 39
0.008
  6
CONTINUOUS
 10
1.21409
 20
0.42614
 30
 0
 11
1.21693
 21
0.42776
  0
LINE
  8
Engraving
 62
   255
 39
0.008
  6
CONTINUOUS
 10
1.21693
 20
0.42776
 30
 0
 11
1.21996
 21
0.42874
  0
LINE
  8
Engraving
 62
   255
 39
0.008
  6
CONTINUOUS
 10
1.21996
 20
0.42874
 30
 0
 11
1.22303
 21
0.42906
  0
LINE
  8
Engraving
 62
   255
 39
0.008
  6
CONTINUOUS
 10
1.22303
 20
0.42906
 30
 0
 11
1.22303
 21
0.42906
  0
LINE
  8
Engraving
 62
   255
 39
0.008
  6
CONTINUOUS
 10
1.22303
 20
0.42906
 30
 0
 11
1.22602
 21
0.42878
  0
LINE
  8
Engraving
 62
   255
 39
0.008
  6
CONTINUOUS
 10
1.22602
 20
0.42878
 30
 0
 11
1.22898
 21
0.42783
  0
LINE
  8
Engraving
 62
   255
 39
0.008
  6
CONTINUOUS
 10
1.22898
 20
0.42783
 30
 0
 11
1.23181
 21
0.42630
  0
LINE
  8
Engraving
 62
   255
 39
0.008
  6
CONTINUOUS
 10
1.23181
 20
0.42630
 30
 0
 11
1.23445
 21
0.42421
  0
LINE
  8
Engraving
 62
   255
 39
0.008
  6
CONTINUOUS
 10
1.23445
 20
0.42421
 30
 0
 11
1.23685
 21
0.42157
  0
LINE
  8
Engraving
 62
   255
 39
0.008
  6
CONTINUOUS
 10
1.23685
 20
0.42157
 30
 0
 11
1.23894
 21
0.41850
  0
LINE
  8
Engraving
 62
   255
 39
0.008
  6
CONTINUOUS
 10
1.23894
 20
0.41850
 30
 0
 11
1.24071
 21
0.41496
  0
LINE
  8
Engraving
 62
   255
 39
0.008
  6
CONTINUOUS
 10
1.24071
 20
0.41496
 30
 0
 11
1.24209
 21
0.41114
  0
LINE
  8
Engraving
 62
   255
 39
0.008
  6
CONTINUOUS
 10
1.24209
 20
0.41114
 30
 0
 11
1.24303
 21
0.40705
  0
LINE
  8
Engraving
 62
   255
 39
0.008
  6
CONTINUOUS
 10
1.24303
 20
0.40705
 30
 0
 11
1.24358
 21
0.40283
  0
LINE
  8
Engraving
 62
   255
 39
0.008
  6
CONTINUOUS
 10
1.24358
 20
0.40283
 30
 0
 11
1.24370
 21
0.39953
  0
LINE
  8
Engraving
 62
   255
 39
0.008
  6
CONTINUOUS
 10
1.26713
 20
0.42906
 30
 0
 11
1.26713
 21
0.31094
  0
LINE
  8
Engraving
 62
   255
 39
0.008
  6
CONTINUOUS
 10
1.29055
 20
0.34047
 30
 0
 11
1.29079
 21
0.33606
  0
LINE
  8
Engraving
 62
   255
 39
0.008
  6
CONTINUOUS
 10
1.29079
 20
0.33606
 30
 0
 11
1.29146
 21
0.33177
  0
LINE
  8
Engraving
 62
   255
 39
0.008
  6
CONTINUOUS
 10
1.29146
 20
0.33177
 30
 0
 11
1.29260
 21
0.32768
  0
LINE
  8
Engraving
 62
   255
 39
0.008
  6
CONTINUOUS
 10
1.29260
 20
0.32768
 30
 0
 11
1.29413
 21
0.32386
  0
LINE
  8
Engraving
 62
   255
 39
0.008
  6
CONTINUOUS
 10
1.29413
 20
0.32386
 30
 0
 11
1.29606
 21
0.32039
  0
LINE
  8
Engraving
 62
   255
 39
0.008
  6
CONTINUOUS
 10
1.29606
 20
0.32039
 30
 0
 11
1.29831
 21
0.31740
  0
LINE
  8
Engraving
 62
   255
 39
0.008
  6
CONTINUOUS
 10
1.29831
 20
0.31740
 30
 0
 11
1.30091
 21
0.31488
  0
LINE
  8
Engraving
 62
   255
 39
0.008
  6
CONTINUOUS
 10
1.30091
 20
0.31488
 30
 0
 11
1.30366
 21
0.31299
  0
LINE
  8
Engraving
 62
   255
 39
0.008
  6
CONTINUOUS
 10
1.30366
 20
0.31299
 30
 0
 11
1.30661
 21
0.31169
  0
LINE
  8
Engraving
 62
   255
 39
0.008
  6
CONTINUOUS
 10
1.30661
 20
0.31169
 30
 0
 11
1.30969
 21
0.31102
  0
LINE
  8
Engraving
 62
   255
 39
0.008
  6
CONTINUOUS
 10
1.30969
 20
0.31102
 30
 0
 11
1.31276
 21
0.31102
  0
LINE
  8
Engraving
 62
   255
 39
0.008
  6
CONTINUOUS
 10
1.31276
 20
0.31102
 30
 0
 11
1.31583
 21
0.31169
  0
LINE
  8
Engraving
 62
   255
 39
0.008
  6
CONTINUOUS
 10
1.31583
 20
0.31169
 30
 0
 11
1.31878
 21
0.31299
  0
LINE
  8
Engraving
 62
   255
 39
0.008
  6
CONTINUOUS
 10
1.31878
 20
0.31299
 30
 0
 11
1.32157
 21
0.31488
  0
LINE
  8
Engraving
 62
   255
 39
0.008
  6
CONTINUOUS
 10
1.32157
 20
0.31488
 30
 0
 11
1.32413
 21
0.31740
  0
LINE
  8
Engraving
 62
   255
 39
0.008
  6
CONTINUOUS
 10
1.32413
 20
0.31740
 30
 0
 11
1.32638
 21
0.32039
  0
LINE
  8
Engraving
 62
   255
 39
0.008
  6
CONTINUOUS
 10
1.32638
 20
0.32039
 30
 0
 11
1.32831
 21
0.32386
  0
LINE
  8
Engraving
 62
   255
 39
0.008
  6
CONTINUOUS
 10
1.32831
 20
0.32386
 30
 0
 11
1.32984
 21
0.32768
  0
LINE
  8
Engraving
 62
   255
 39
0.008
  6
CONTINUOUS
 10
1.32984
 20
0.32768
 30
 0
 11
1.33098
 21
0.33177
  0
LINE
  8
Engraving
 62
   255
 39
0.008
  6
CONTINUOUS
 10
1.33098
 20
0.33177
 30
 0
 11
1.33165
 21
0.33606
  0
LINE
  8
Engraving
 62
   255
 39
0.008
  6
CONTINUOUS
 10
1.33165
 20
0.33606
 30
 0
 11
1.33189
 21
0.34047
  0
LINE
  8
Engraving
 62
   255
 39
0.008
  6
CONTINUOUS
 10
1.33189
 20
0.34047
 30
 0
 11
1.33189
 21
0.34047
  0
LINE
  8
Engraving
 62
   255
 39
0.008
  6
CONTINUOUS
 10
1.33189
 20
0.34047
 30
 0
 11
1.33169
 21
0.34469
  0
LINE
  8
Engraving
 62
   255
 39
0.008
  6
CONTINUOUS
 10
1.33169
 20
0.34469
 30
 0
 11
1.33110
 21
0.34882
  0
LINE
  8
Engraving
 62
   255
 39
0.008
  6
CONTINUOUS
 10
1.33110
 20
0.34882
 30
 0
 11
1.33004
 21
0.35276
  0
LINE
  8
Engraving
 62
   255
 39
0.008
  6
CONTINUOUS
 10
1.33004
 20
0.35276
 30
 0
 11
1.32862
 21
0.35646
  0
LINE
  8
Engraving
 62
   255
 39
0.008
  6
CONTINUOUS
 10
1.32862
 20
0.35646
 30
 0
 11
1.32689
 21
0.35984
  0
LINE
  8
Engraving
 62
   255
 39
0.008
  6
CONTINUOUS
 10
1.32689
 20
0.35984
 30
 0
 11
1.32476
 21
0.36283
  0
LINE
  8
Engraving
 62
   255
 39
0.008
  6
CONTINUOUS
 10
1.32476
 20
0.36283
 30
 0
 11
1.32240
 21
0.36535
  0
LINE
  8
Engraving
 62
   255
 39
0.008
  6
CONTINUOUS
 10
1.32240
 20
0.36535
 30
 0
 11
1.31980
 21
0.36736
  0
LINE
  8
Engraving
 62
   255
 39
0.008
  6
CONTINUOUS
 10
1.31980
 20
0.36736
 30
 0
 11
1.31705
 21
0.36886
  0
LINE
  8
Engraving
 62
   255
 39
0.008
  6
CONTINUOUS
 10
1.31705
 20
0.36886
 30
 0
 11
1.31417
 21
0.36972
  0
LINE
  8
Engraving
 62
   255
 39
0.008
  6
CONTINUOUS
 10
1.31417
 20
0.36972
 30
 0
 11
1.31122
 21
0.37000
  0
LINE
  8
Engraving
 62
   255
 39
0.008
  6
CONTINUOUS
 10
1.31122
 20
0.37000
 30
 0
 11
1.31122
 21
0.37000
  0
LINE
  8
Engraving
 62
   255
 39
0.008
  6
CONTINUOUS
 10
1.31122
 20
0.37000
 30
 0
 11
1.30815
 21
0.37031
  0
LINE
  8
Engraving
 62
   255
 39
0.008
  6
CONTINUOUS
 10
1.30815
 20
0.37031
 30
 0
 11
1.30512
 21
0.37130
  0
LINE
  8
Engraving
 62
   255
 39
0.008
  6
CONTINUOUS
 10
1.30512
 20
0.37130
 30
 0
 11
1.30228
 21
0.37291
  0
LINE
  8
Engraving
 62
   255
 39
0.008
  6
CONTINUOUS
 10
1.30228
 20
0.37291
 30
 0
 11
1.29961
 21
0.37512
  0
LINE
  8
Engraving
 62
   255
 39
0.008
  6
CONTINUOUS
 10
1.29961
 20
0.37512
 30
 0
 11
1.29717
 21
0.37787
  0
LINE
  8
Engraving
 62
   255
 39
0.008
  6
CONTINUOUS
 10
1.29717
 20
0.37787
 30
 0
 11
1.29508
 21
0.38110
  0
LINE
  8
Engraving
 62
   255
 39
0.008
  6
CONTINUOUS
 10
1.29508
 20
0.38110
 30
 0
 11
1.29331
 21
0.38476
  0
LINE
  8
Engraving
 62
   255
 39
0.008
  6
CONTINUOUS
 10
1.29331
 20
0.38476
 30
 0
 11
1.29197
 21
0.38874
  0
LINE
  8
Engraving
 62
   255
 39
0.008
  6
CONTINUOUS
 10
1.29197
 20
0.38874
 30
 0
 11
1.29106
 21
0.39295
  0
LINE
  8
Engraving
 62
   255
 39
0.008
  6
CONTINUOUS
 10
1.29106
 20
0.39295
 30
 0
 11
1.29059
 21
0.39732
  0
LINE
  8
Engraving
 62
   255
 39
0.008
  6
CONTINUOUS
 10
1.29059
 20
0.39732
 30
 0
 11
1.29059
 21
0.40173
  0
LINE
  8
Engraving
 62
   255
 39
0.008
  6
CONTINUOUS
 10
1.29059
 20
0.40173
 30
 0
 11
1.29106
 21
0.40610
  0
LINE
  8
Engraving
 62
   255
 39
0.008
  6
CONTINUOUS
 10
1.29106
 20
0.40610
 30
 0
 11
1.29197
 21
0.41031
  0
LINE
  8
Engraving
 62
   255
 39
0.008
  6
CONTINUOUS
 10
1.29197
 20
0.41031
 30
 0
 11
1.29331
 21
0.41429
  0
LINE
  8
Engraving
 62
   255
 39
0.008
  6
CONTINUOUS
 10
1.29331
 20
0.41429
 30
 0
 11
1.29508
 21
0.41795
  0
LINE
  8
Engraving
 62
   255
 39
0.008
  6
CONTINUOUS
 10
1.29508
 20
0.41795
 30
 0
 11
1.29717
 21
0.42118
  0
LINE
  8
Engraving
 62
   255
 39
0.008
  6
CONTINUOUS
 10
1.29717
 20
0.42118
 30
 0
 11
1.29961
 21
0.42394
  0
LINE
  8
Engraving
 62
   255
 39
0.008
  6
CONTINUOUS
 10
1.29961
 20
0.42394
 30
 0
 11
1.30228
 21
0.42614
  0
LINE
  8
Engraving
 62
   255
 39
0.008
  6
CONTINUOUS
 10
1.30228
 20
0.42614
 30
 0
 11
1.30512
 21
0.42776
  0
LINE
  8
Engraving
 62
   255
 39
0.008
  6
CONTINUOUS
 10
1.30512
 20
0.42776
 30
 0
 11
1.30815
 21
0.42874
  0
LINE
  8
Engraving
 62
   255
 39
0.008
  6
CONTINUOUS
 10
1.30815
 20
0.42874
 30
 0
 11
1.31122
 21
0.42906
  0
LINE
  8
Engraving
 62
   255
 39
0.008
  6
CONTINUOUS
 10
1.31122
 20
0.42906
 30
 0
 11
1.31122
 21
0.42906
  0
LINE
  8
Engraving
 62
   255
 39
0.008
  6
CONTINUOUS
 10
1.31122
 20
0.42906
 30
 0
 11
1.31421
 21
0.42878
  0
LINE
  8
Engraving
 62
   255
 39
0.008
  6
CONTINUOUS
 10
1.31421
 20
0.42878
 30
 0
 11
1.31717
 21
0.42783
  0
LINE
  8
Engraving
 62
   255
 39
0.008
  6
CONTINUOUS
 10
1.31717
 20
0.42783
 30
 0
 11
1.32000
 21
0.42630
  0
LINE
  8
Engraving
 62
   255
 39
0.008
  6
CONTINUOUS
 10
1.32000
 20
0.42630
 30
 0
 11
1.32264
 21
0.42421
  0
LINE
  8
Engraving
 62
   255
 39
0.008
  6
CONTINUOUS
 10
1.32264
 20
0.42421
 30
 0
 11
1.32504
 21
0.42157
  0
LINE
  8
Engraving
 62
   255
 39
0.008
  6
CONTINUOUS
 10
1.32504
 20
0.42157
 30
 0
 11
1.32713
 21
0.41850
  0
LINE
  8
Engraving
 62
   255
 39
0.008
  6
CONTINUOUS
 10
1.32713
 20
0.41850
 30
 0
 11
1.32890
 21
0.41496
  0
LINE
  8
Engraving
 62
   255
 39
0.008
  6
CONTINUOUS
 10
1.32890
 20
0.41496
 30
 0
 11
1.33028
 21
0.41114
  0
LINE
  8
Engraving
 62
   255
 39
0.008
  6
CONTINUOUS
 10
1.33028
 20
0.41114
 30
 0
 11
1.33122
 21
0.40705
  0
LINE
  8
Engraving
 62
   255
 39
0.008
  6
CONTINUOUS
 10
1.33122
 20
0.40705
 30
 0
 11
1.33177
 21
0.40283
  0
LINE
  8
Engraving
 62
   255
 39
0.008
  6
CONTINUOUS
 10
1.33177
 20
0.40283
 30
 0
 11
1.33189
 21
0.39953
  0
LINE
  8
Engraving
 62
   255
 39
0.008
  6
CONTINUOUS
 10
0.62035
 20
5.27449
 30
 0
 11
0.62067
 21
5.27008
  0
LINE
  8
Engraving
 62
   255
 39
0.008
  6
CONTINUOUS
 10
0.62067
 20
5.27008
 30
 0
 11
0.62154
 21
5.26579
  0
LINE
  8
Engraving
 62
   255
 39
0.008
  6
CONTINUOUS
 10
0.62154
 20
5.26579
 30
 0
 11
0.62299
 21
5.26169
  0
LINE
  8
Engraving
 62
   255
 39
0.008
  6
CONTINUOUS
 10
0.62299
 20
5.26169
 30
 0
 11
0.62496
 21
5.25787
  0
LINE
  8
Engraving
 62
   255
 39
0.008
  6
CONTINUOUS
 10
0.62496
 20
5.25787
 30
 0
 11
0.62744
 21
5.25441
  0
LINE
  8
Engraving
 62
   255
 39
0.008
  6
CONTINUOUS
 10
0.62744
 20
5.25441
 30
 0
 11
0.63035
 21
5.25142
  0
LINE
  8
Engraving
 62
   255
 39
0.008
  6
CONTINUOUS
 10
0.63035
 20
5.25142
 30
 0
 11
0.63366
 21
5.24890
  0
LINE
  8
Engraving
 62
   255
 39
0.008
  6
CONTINUOUS
 10
0.63366
 20
5.24890
 30
 0
 11
0.63724
 21
5.24701
  0
LINE
  8
Engraving
 62
   255
 39
0.008
  6
CONTINUOUS
 10
0.63724
 20
5.24701
 30
 0
 11
0.64102
 21
5.24571
  0
LINE
  8
Engraving
 62
   255
 39
0.008
  6
CONTINUOUS
 10
0.64102
 20
5.24571
 30
 0
 11
0.64496
 21
5.24504
  0
LINE
  8
Engraving
 62
   255
 39
0.008
  6
CONTINUOUS
 10
0.64496
 20
5.24504
 30
 0
 11
0.64894
 21
5.24504
  0
LINE
  8
Engraving
 62
   255
 39
0.008
  6
CONTINUOUS
 10
0.64894
 20
5.24504
 30
 0
 11
0.65287
 21
5.24571
  0
LINE
  8
Engraving
 62
   255
 39
0.008
  6
CONTINUOUS
 10
0.65287
 20
5.24571
 30
 0
 11
0.65665
 21
5.24701
  0
LINE
  8
Engraving
 62
   255
 39
0.008
  6
CONTINUOUS
 10
0.65665
 20
5.24701
 30
 0
 11
0.66024
 21
5.24890
  0
LINE
  8
Engraving
 62
   255
 39
0.008
  6
CONTINUOUS
 10
0.66024
 20
5.24890
 30
 0
 11
0.66354
 21
5.25142
  0
LINE
  8
Engraving
 62
   255
 39
0.008
  6
CONTINUOUS
 10
0.66354
 20
5.25142
 30
 0
 11
0.66642
 21
5.25441
  0
LINE
  8
Engraving
 62
   255
 39
0.008
  6
CONTINUOUS
 10
0.66642
 20
5.25441
 30
 0
 11
0.66890
 21
5.25787
  0
LINE
  8
Engraving
 62
   255
 39
0.008
  6
CONTINUOUS
 10
0.66890
 20
5.25787
 30
 0
 11
0.67091
 21
5.26169
  0
LINE
  8
Engraving
 62
   255
 39
0.008
  6
CONTINUOUS
 10
0.67091
 20
5.26169
 30
 0
 11
0.67236
 21
5.26579
  0
LINE
  8
Engraving
 62
   255
 39
0.008
  6
CONTINUOUS
 10
0.67236
 20
5.26579
 30
 0
 11
0.67323
 21
5.27008
  0
LINE
  8
Engraving
 62
   255
 39
0.008
  6
CONTINUOUS
 10
0.67323
 20
5.27008
 30
 0
 11
0.67350
 21
5.27449
  0
LINE
  8
Engraving
 62
   255
 39
0.008
  6
CONTINUOUS
 10
0.67350
 20
5.27449
 30
 0
 11
0.67350
 21
5.27449
  0
LINE
  8
Engraving
 62
   255
 39
0.008
  6
CONTINUOUS
 10
0.67350
 20
5.27449
 30
 0
 11
0.67327
 21
5.27870
  0
LINE
  8
Engraving
 62
   255
 39
0.008
  6
CONTINUOUS
 10
0.67327
 20
5.27870
 30
 0
 11
0.67248
 21
5.28283
  0
LINE
  8
Engraving
 62
   255
 39
0.008
  6
CONTINUOUS
 10
0.67248
 20
5.28283
 30
 0
 11
0.67114
 21
5.28677
  0
LINE
  8
Engraving
 62
   255
 39
0.008
  6
CONTINUOUS
 10
0.67114
 20
5.28677
 30
 0
 11
0.66933
 21
5.29047
  0
LINE
  8
Engraving
 62
   255
 39
0.008
  6
CONTINUOUS
 10
0.66933
 20
5.29047
 30
 0
 11
0.66709
 21
5.29386
  0
LINE
  8
Engraving
 62
   255
 39
0.008
  6
CONTINUOUS
 10
0.66709
 20
5.29386
 30
 0
 11
0.66437
 21
5.29685
  0
LINE
  8
Engraving
 62
   255
 39
0.008
  6
CONTINUOUS
 10
0.66437
 20
5.29685
 30
 0
 11
0.66134
 21
5.29937
  0
LINE
  8
Engraving
 62
   255
 39
0.008
  6
CONTINUOUS
 10
0.66134
 20
5.29937
 30
 0
 11
0.65799
 21
5.30138
  0
LINE
  8
Engraving
 62
   255
 39
0.008
  6
CONTINUOUS
 10
0.65799
 20
5.30138
 30
 0
 11
0.65445
 21
5.30287
  0
LINE
  8
Engraving
 62
   255
 39
0.008
  6
CONTINUOUS
 10
0.65445
 20
5.30287
 30
 0
 11
0.65075
 21
5.30374
  0
LINE
  8
Engraving
 62
   255
 39
0.008
  6
CONTINUOUS
 10
0.65075
 20
5.30374
 30
 0
 11
0.64693
 21
5.30402
  0
LINE
  8
Engraving
 62
   255
 39
0.008
  6
CONTINUOUS
 10
0.64693
 20
5.30402
 30
 0
 11
0.64693
 21
5.30402
  0
LINE
  8
Engraving
 62
   255
 39
0.008
  6
CONTINUOUS
 10
0.64693
 20
5.30402
 30
 0
 11
0.64299
 21
5.30433
  0
LINE
  8
Engraving
 62
   255
 39
0.008
  6
CONTINUOUS
 10
0.64299
 20
5.30433
 30
 0
 11
0.63913
 21
5.30531
  0
LINE
  8
Engraving
 62
   255
 39
0.008
  6
CONTINUOUS
 10
0.63913
 20
5.30531
 30
 0
 11
0.63543
 21
5.30693
  0
LINE
  8
Engraving
 62
   255
 39
0.008
  6
CONTINUOUS
 10
0.63543
 20
5.30693
 30
 0
 11
0.63201
 21
5.30913
  0
LINE
  8
Engraving
 62
   255
 39
0.008
  6
CONTINUOUS
 10
0.63201
 20
5.30913
 30
 0
 11
0.62886
 21
5.31189
  0
LINE
  8
Engraving
 62
   255
 39
0.008
  6
CONTINUOUS
 10
0.62886
 20
5.31189
 30
 0
 11
0.62618
 21
5.31512
  0
LINE
  8
Engraving
 62
   255
 39
0.008
  6
CONTINUOUS
 10
0.62618
 20
5.31512
 30
 0
 11
0.62390
 21
5.31878
  0
LINE
  8
Engraving
 62
   255
 39
0.008
  6
CONTINUOUS
 10
0.62390
 20
5.31878
 30
 0
 11
0.62220
 21
5.32276
  0
LINE
  8
Engraving
 62
   255
 39
0.008
  6
CONTINUOUS
 10
0.62220
 20
5.32276
 30
 0
 11
0.62106
 21
5.32697
  0
LINE
  8
Engraving
 62
   255
 39
0.008
  6
CONTINUOUS
 10
0.62106
 20
5.32697
 30
 0
 11
0.62043
 21
5.33134
  0
LINE
  8
Engraving
 62
   255
 39
0.008
  6
CONTINUOUS
 10
0.62043
 20
5.33134
 30
 0
 11
0.62043
 21
5.33575
  0
LINE
  8
Engraving
 62
   255
 39
0.008
  6
CONTINUOUS
 10
0.62043
 20
5.33575
 30
 0
 11
0.62106
 21
5.34012
  0
LINE
  8
Engraving
 62
   255
 39
0.008
  6
CONTINUOUS
 10
0.62106
 20
5.34012
 30
 0
 11
0.62220
 21
5.34433
  0
LINE
  8
Engraving
 62
   255
 39
0.008
  6
CONTINUOUS
 10
0.62220
 20
5.34433
 30
 0
 11
0.62390
 21
5.34831
  0
LINE
  8
Engraving
 62
   255
 39
0.008
  6
CONTINUOUS
 10
0.62390
 20
5.34831
 30
 0
 11
0.62618
 21
5.35197
  0
LINE
  8
Engraving
 62
   255
 39
0.008
  6
CONTINUOUS
 10
0.62618
 20
5.35197
 30
 0
 11
0.62886
 21
5.35520
  0
LINE
  8
Engraving
 62
   255
 39
0.008
  6
CONTINUOUS
 10
0.62886
 20
5.35520
 30
 0
 11
0.63201
 21
5.35795
  0
LINE
  8
Engraving
 62
   255
 39
0.008
  6
CONTINUOUS
 10
0.63201
 20
5.35795
 30
 0
 11
0.63543
 21
5.36016
  0
LINE
  8
Engraving
 62
   255
 39
0.008
  6
CONTINUOUS
 10
0.63543
 20
5.36016
 30
 0
 11
0.63913
 21
5.36177
  0
LINE
  8
Engraving
 62
   255
 39
0.008
  6
CONTINUOUS
 10
0.63913
 20
5.36177
 30
 0
 11
0.64299
 21
5.36276
  0
LINE
  8
Engraving
 62
   255
 39
0.008
  6
CONTINUOUS
 10
0.64299
 20
5.36276
 30
 0
 11
0.64693
 21
5.36307
  0
LINE
  8
Engraving
 62
   255
 39
0.008
  6
CONTINUOUS
 10
0.64693
 20
5.36307
 30
 0
 11
0.64693
 21
5.36307
  0
LINE
  8
Engraving
 62
   255
 39
0.008
  6
CONTINUOUS
 10
0.64693
 20
5.36307
 30
 0
 11
0.65083
 21
5.36280
  0
LINE
  8
Engraving
 62
   255
 39
0.008
  6
CONTINUOUS
 10
0.65083
 20
5.36280
 30
 0
 11
0.65461
 21
5.36185
  0
LINE
  8
Engraving
 62
   255
 39
0.008
  6
CONTINUOUS
 10
0.65461
 20
5.36185
 30
 0
 11
0.65827
 21
5.36031
  0
LINE
  8
Engraving
 62
   255
 39
0.008
  6
CONTINUOUS
 10
0.65827
 20
5.36031
 30
 0
 11
0.66161
 21
5.35823
  0
LINE
  8
Engraving
 62
   255
 39
0.008
  6
CONTINUOUS
 10
0.66161
 20
5.35823
 30
 0
 11
0.66469
 21
5.35559
  0
LINE
  8
Engraving
 62
   255
 39
0.008
  6
CONTINUOUS
 10
0.66469
 20
5.35559
 30
 0
 11
0.66740
 21
5.35252
  0
LINE
  8
Engraving
 62
   255
 39
0.008
  6
CONTINUOUS
 10
0.66740
 20
5.35252
 30
 0
 11
0.66965
 21
5.34898
  0
LINE
  8
Engraving
 62
   255
 39
0.008
  6
CONTINUOUS
 10
0.66965
 20
5.34898
 30
 0
 11
0.67142
 21
5.34516
  0
LINE
  8
Engraving
 62
   255
 39
0.008
  6
CONTINUOUS
 10
0.67142
 20
5.34516
 30
 0
 11
0.67268
 21
5.34106
  0
LINE
  8
Engraving
 62
   255
 39
0.008
  6
CONTINUOUS
 10
0.67268
 20
5.34106
 30
 0
 11
0.67339
 21
5.33685
  0
LINE
  8
Engraving
 62
   255
 39
0.008
  6
CONTINUOUS
 10
0.67339
 20
5.33685
 30
 0
 11
0.67350
 21
5.33354
  0
LINE
  8
Engraving
 62
   255
 39
0.008
  6
CONTINUOUS
 10
0.70362
 20
5.36307
 30
 0
 11
0.70362
 21
5.27154
  0
LINE
  8
Engraving
 62
   255
 39
0.008
  6
CONTINUOUS
 10
0.70362
 20
5.27154
 30
 0
 11
0.70394
 21
5.26756
  0
LINE
  8
Engraving
 62
   255
 39
0.008
  6
CONTINUOUS
 10
0.70394
 20
5.26756
 30
 0
 11
0.70469
 21
5.26370
  0
LINE
  8
Engraving
 62
   255
 39
0.008
  6
CONTINUOUS
 10
0.70469
 20
5.26370
 30
 0
 11
0.70602
 21
5.26000
  0
LINE
  8
Engraving
 62
   255
 39
0.008
  6
CONTINUOUS
 10
0.70602
 20
5.26000
 30
 0
 11
0.70780
 21
5.25657
  0
LINE
  8
Engraving
 62
   255
 39
0.008
  6
CONTINUOUS
 10
0.70780
 20
5.25657
 30
 0
 11
0.71000
 21
5.25346
  0
LINE
  8
Engraving
 62
   255
 39
0.008
  6
CONTINUOUS
 10
0.71000
 20
5.25346
 30
 0
 11
0.71264
 21
5.25075
  0
LINE
  8
Engraving
 62
   255
 39
0.008
  6
CONTINUOUS
 10
0.71264
 20
5.25075
 30
 0
 11
0.71563
 21
5.24850
  0
LINE
  8
Engraving
 62
   255
 39
0.008
  6
CONTINUOUS
 10
0.71563
 20
5.24850
 30
 0
 11
0.71882
 21
5.24681
  0
LINE
  8
Engraving
 62
   255
 39
0.008
  6
CONTINUOUS
 10
0.71882
 20
5.24681
 30
 0
 11
0.72224
 21
5.24563
  0
LINE
  8
Engraving
 62
   255
 39
0.008
  6
CONTINUOUS
 10
0.72224
 20
5.24563
 30
 0
 11
0.72579
 21
5.24504
  0
LINE
  8
Engraving
 62
   255
 39
0.008
  6
CONTINUOUS
 10
0.72579
 20
5.24504
 30
 0
 11
0.72933
 21
5.24504
  0
LINE
  8
Engraving
 62
   255
 39
0.008
  6
CONTINUOUS
 10
0.72933
 20
5.24504
 30
 0
 11
0.73287
 21
5.24563
  0
LINE
  8
Engraving
 62
   255
 39
0.008
  6
CONTINUOUS
 10
0.73287
 20
5.24563
 30
 0
 11
0.73630
 21
5.24681
  0
LINE
  8
Engraving
 62
   255
 39
0.008
  6
CONTINUOUS
 10
0.73630
 20
5.24681
 30
 0
 11
0.73953
 21
5.24850
  0
LINE
  8
Engraving
 62
   255
 39
0.008
  6
CONTINUOUS
 10
0.73953
 20
5.24850
 30
 0
 11
0.74248
 21
5.25075
  0
LINE
  8
Engraving
 62
   255
 39
0.008
  6
CONTINUOUS
 10
0.74248
 20
5.25075
 30
 0
 11
0.74508
 21
5.25346
  0
LINE
  8
Engraving
 62
   255
 39
0.008
  6
CONTINUOUS
 10
0.74508
 20
5.25346
 30
 0
 11
0.74732
 21
5.25657
  0
LINE
  8
Engraving
 62
   255
 39
0.008
  6
CONTINUOUS
 10
0.74732
 20
5.25657
 30
 0
 11
0.74909
 21
5.26000
  0
LINE
  8
Engraving
 62
   255
 39
0.008
  6
CONTINUOUS
 10
0.74909
 20
5.26000
 30
 0
 11
0.75039
 21
5.26370
  0
LINE
  8
Engraving
 62
   255
 39
0.008
  6
CONTINUOUS
 10
0.75039
 20
5.26370
 30
 0
 11
0.75118
 21
5.26756
  0
LINE
  8
Engraving
 62
   255
 39
0.008
  6
CONTINUOUS
 10
0.75118
 20
5.26756
 30
 0
 11
0.75146
 21
5.27154
  0
LINE
  8
Engraving
 62
   255
 39
0.008
  6
CONTINUOUS
 10
0.75146
 20
5.27154
 30
 0
 11
0.75146
 21
5.27154
  0
LINE
  8
Engraving
 62
   255
 39
0.008
  6
CONTINUOUS
 10
0.75146
 20
5.27154
 30
 0
 11
0.75146
 21
5.36307
  0
LINE
  8
Engraving
 62
   255
 39
0.008
  6
CONTINUOUS
 10
0.78157
 20
5.27449
 30
 0
 11
0.78189
 21
5.27008
  0
LINE
  8
Engraving
 62
   255
 39
0.008
  6
CONTINUOUS
 10
0.78189
 20
5.27008
 30
 0
 11
0.78276
 21
5.26579
  0
LINE
  8
Engraving
 62
   255
 39
0.008
  6
CONTINUOUS
 10
0.78276
 20
5.26579
 30
 0
 11
0.78421
 21
5.26169
  0
LINE
  8
Engraving
 62
   255
 39
0.008
  6
CONTINUOUS
 10
0.78421
 20
5.26169
 30
 0
 11
0.78618
 21
5.25787
  0
LINE
  8
Engraving
 62
   255
 39
0.008
  6
CONTINUOUS
 10
0.78618
 20
5.25787
 30
 0
 11
0.78866
 21
5.25441
  0
LINE
  8
Engraving
 62
   255
 39
0.008
  6
CONTINUOUS
 10
0.78866
 20
5.25441
 30
 0
 11
0.79157
 21
5.25142
  0
LINE
  8
Engraving
 62
   255
 39
0.008
  6
CONTINUOUS
 10
0.79157
 20
5.25142
 30
 0
 11
0.79488
 21
5.24890
  0
LINE
  8
Engraving
 62
   255
 39
0.008
  6
CONTINUOUS
 10
0.79488
 20
5.24890
 30
 0
 11
0.79846
 21
5.24701
  0
LINE
  8
Engraving
 62
   255
 39
0.008
  6
CONTINUOUS
 10
0.79846
 20
5.24701
 30
 0
 11
0.80224
 21
5.24571
  0
LINE
  8
Engraving
 62
   255
 39
0.008
  6
CONTINUOUS
 10
0.80224
 20
5.24571
 30
 0
 11
0.80618
 21
5.24504
  0
LINE
  8
Engraving
 62
   255
 39
0.008
  6
CONTINUOUS
 10
0.80618
 20
5.24504
 30
 0
 11
0.81016
 21
5.24504
  0
LINE
  8
Engraving
 62
   255
 39
0.008
  6
CONTINUOUS
 10
0.81016
 20
5.24504
 30
 0
 11
0.81409
 21
5.24571
  0
LINE
  8
Engraving
 62
   255
 39
0.008
  6
CONTINUOUS
 10
0.81409
 20
5.24571
 30
 0
 11
0.81787
 21
5.24701
  0
LINE
  8
Engraving
 62
   255
 39
0.008
  6
CONTINUOUS
 10
0.81787
 20
5.24701
 30
 0
 11
0.82146
 21
5.24890
  0
LINE
  8
Engraving
 62
   255
 39
0.008
  6
CONTINUOUS
 10
0.82146
 20
5.24890
 30
 0
 11
0.82476
 21
5.25142
  0
LINE
  8
Engraving
 62
   255
 39
0.008
  6
CONTINUOUS
 10
0.82476
 20
5.25142
 30
 0
 11
0.82764
 21
5.25441
  0
LINE
  8
Engraving
 62
   255
 39
0.008
  6
CONTINUOUS
 10
0.82764
 20
5.25441
 30
 0
 11
0.83012
 21
5.25787
  0
LINE
  8
Engraving
 62
   255
 39
0.008
  6
CONTINUOUS
 10
0.83012
 20
5.25787
 30
 0
 11
0.83213
 21
5.26169
  0
LINE
  8
Engraving
 62
   255
 39
0.008
  6
CONTINUOUS
 10
0.83213
 20
5.26169
 30
 0
 11
0.83358
 21
5.26579
  0
LINE
  8
Engraving
 62
   255
 39
0.008
  6
CONTINUOUS
 10
0.83358
 20
5.26579
 30
 0
 11
0.83445
 21
5.27008
  0
LINE
  8
Engraving
 62
   255
 39
0.008
  6
CONTINUOUS
 10
0.83445
 20
5.27008
 30
 0
 11
0.83472
 21
5.27449
  0
LINE
  8
Engraving
 62
   255
 39
0.008
  6
CONTINUOUS
 10
0.83472
 20
5.27449
 30
 0
 11
0.83472
 21
5.27449
  0
LINE
  8
Engraving
 62
   255
 39
0.008
  6
CONTINUOUS
 10
0.83472
 20
5.27449
 30
 0
 11
0.83449
 21
5.27870
  0
LINE
  8
Engraving
 62
   255
 39
0.008
  6
CONTINUOUS
 10
0.83449
 20
5.27870
 30
 0
 11
0.83370
 21
5.28283
  0
LINE
  8
Engraving
 62
   255
 39
0.008
  6
CONTINUOUS
 10
0.83370
 20
5.28283
 30
 0
 11
0.83236
 21
5.28677
  0
LINE
  8
Engraving
 62
   255
 39
0.008
  6
CONTINUOUS
 10
0.83236
 20
5.28677
 30
 0
 11
0.83055
 21
5.29047
  0
LINE
  8
Engraving
 62
   255
 39
0.008
  6
CONTINUOUS
 10
0.83055
 20
5.29047
 30
 0
 11
0.82831
 21
5.29386
  0
LINE
  8
Engraving
 62
   255
 39
0.008
  6
CONTINUOUS
 10
0.82831
 20
5.29386
 30
 0
 11
0.82559
 21
5.29685
  0
LINE
  8
Engraving
 62
   255
 39
0.008
  6
CONTINUOUS
 10
0.82559
 20
5.29685
 30
 0
 11
0.82256
 21
5.29937
  0
LINE
  8
Engraving
 62
   255
 39
0.008
  6
CONTINUOUS
 10
0.82256
 20
5.29937
 30
 0
 11
0.81921
 21
5.30138
  0
LINE
  8
Engraving
 62
   255
 39
0.008
  6
CONTINUOUS
 10
0.81921
 20
5.30138
 30
 0
 11
0.81567
 21
5.30287
  0
LINE
  8
Engraving
 62
   255
 39
0.008
  6
CONTINUOUS
 10
0.81567
 20
5.30287
 30
 0
 11
0.81197
 21
5.30374
  0
LINE
  8
Engraving
 62
   255
 39
0.008
  6
CONTINUOUS
 10
0.81197
 20
5.30374
 30
 0
 11
0.80815
 21
5.30402
  0
LINE
  8
Engraving
 62
   255
 39
0.008
  6
CONTINUOUS
 10
0.80815
 20
5.30402
 30
 0
 11
0.80815
 21
5.30402
  0
LINE
  8
Engraving
 62
   255
 39
0.008
  6
CONTINUOUS
 10
0.80815
 20
5.30402
 30
 0
 11
0.80421
 21
5.30433
  0
LINE
  8
Engraving
 62
   255
 39
0.008
  6
CONTINUOUS
 10
0.80421
 20
5.30433
 30
 0
 11
0.80035
 21
5.30531
  0
LINE
  8
Engraving
 62
   255
 39
0.008
  6
CONTINUOUS
 10
0.80035
 20
5.30531
 30
 0
 11
0.79665
 21
5.30693
  0
LINE
  8
Engraving
 62
   255
 39
0.008
  6
CONTINUOUS
 10
0.79665
 20
5.30693
 30
 0
 11
0.79323
 21
5.30913
  0
LINE
  8
Engraving
 62
   255
 39
0.008
  6
CONTINUOUS
 10
0.79323
 20
5.30913
 30
 0
 11
0.79008
 21
5.31189
  0
LINE
  8
Engraving
 62
   255
 39
0.008
  6
CONTINUOUS
 10
0.79008
 20
5.31189
 30
 0
 11
0.78740
 21
5.31512
  0
LINE
  8
Engraving
 62
   255
 39
0.008
  6
CONTINUOUS
 10
0.78740
 20
5.31512
 30
 0
 11
0.78512
 21
5.31878
  0
LINE
  8
Engraving
 62
   255
 39
0.008
  6
CONTINUOUS
 10
0.78512
 20
5.31878
 30
 0
 11
0.78343
 21
5.32276
  0
LINE
  8
Engraving
 62
   255
 39
0.008
  6
CONTINUOUS
 10
0.78343
 20
5.32276
 30
 0
 11
0.78228
 21
5.32697
  0
LINE
  8
Engraving
 62
   255
 39
0.008
  6
CONTINUOUS
 10
0.78228
 20
5.32697
 30
 0
 11
0.78165
 21
5.33134
  0
LINE
  8
Engraving
 62
   255
 39
0.008
  6
CONTINUOUS
 10
0.78165
 20
5.33134
 30
 0
 11
0.78165
 21
5.33575
  0
LINE
  8
Engraving
 62
   255
 39
0.008
  6
CONTINUOUS
 10
0.78165
 20
5.33575
 30
 0
 11
0.78228
 21
5.34012
  0
LINE
  8
Engraving
 62
   255
 39
0.008
  6
CONTINUOUS
 10
0.78228
 20
5.34012
 30
 0
 11
0.78343
 21
5.34433
  0
LINE
  8
Engraving
 62
   255
 39
0.008
  6
CONTINUOUS
 10
0.78343
 20
5.34433
 30
 0
 11
0.78512
 21
5.34831
  0
LINE
  8
Engraving
 62
   255
 39
0.008
  6
CONTINUOUS
 10
0.78512
 20
5.34831
 30
 0
 11
0.78740
 21
5.35197
  0
LINE
  8
Engraving
 62
   255
 39
0.008
  6
CONTINUOUS
 10
0.78740
 20
5.35197
 30
 0
 11
0.79008
 21
5.35520
  0
LINE
  8
Engraving
 62
   255
 39
0.008
  6
CONTINUOUS
 10
0.79008
 20
5.35520
 30
 0
 11
0.79323
 21
5.35795
  0
LINE
  8
Engraving
 62
   255
 39
0.008
  6
CONTINUOUS
 10
0.79323
 20
5.35795
 30
 0
 11
0.79665
 21
5.36016
  0
LINE
  8
Engraving
 62
   255
 39
0.008
  6
CONTINUOUS
 10
0.79665
 20
5.36016
 30
 0
 11
0.80035
 21
5.36177
  0
LINE
  8
Engraving
 62
   255
 39
0.008
  6
CONTINUOUS
 10
0.80035
 20
5.36177
 30
 0
 11
0.80421
 21
5.36276
  0
LINE
  8
Engraving
 62
   255
 39
0.008
  6
CONTINUOUS
 10
0.80421
 20
5.36276
 30
 0
 11
0.80815
 21
5.36307
  0
LINE
  8
Engraving
 62
   255
 39
0.008
  6
CONTINUOUS
 10
0.80815
 20
5.36307
 30
 0
 11
0.80815
 21
5.36307
  0
LINE
  8
Engraving
 62
   255
 39
0.008
  6
CONTINUOUS
 10
0.80815
 20
5.36307
 30
 0
 11
0.81205
 21
5.36280
  0
LINE
  8
Engraving
 62
   255
 39
0.008
  6
CONTINUOUS
 10
0.81205
 20
5.36280
 30
 0
 11
0.81583
 21
5.36185
  0
LINE
  8
Engraving
 62
   255
 39
0.008
  6
CONTINUOUS
 10
0.81583
 20
5.36185
 30
 0
 11
0.81949
 21
5.36031
  0
LINE
  8
Engraving
 62
   255
 39
0.008
  6
CONTINUOUS
 10
0.81949
 20
5.36031
 30
 0
 11
0.82283
 21
5.35823
  0
LINE
  8
Engraving
 62
   255
 39
0.008
  6
CONTINUOUS
 10
0.82283
 20
5.35823
 30
 0
 11
0.82591
 21
5.35559
  0
LINE
  8
Engraving
 62
   255
 39
0.008
  6
CONTINUOUS
 10
0.82591
 20
5.35559
 30
 0
 11
0.82862
 21
5.35252
  0
LINE
  8
Engraving
 62
   255
 39
0.008
  6
CONTINUOUS
 10
0.82862
 20
5.35252
 30
 0
 11
0.83087
 21
5.34898
  0
LINE
  8
Engraving
 62
   255
 39
0.008
  6
CONTINUOUS
 10
0.83087
 20
5.34898
 30
 0
 11
0.83264
 21
5.34516
  0
LINE
  8
Engraving
 62
   255
 39
0.008
  6
CONTINUOUS
 10
0.83264
 20
5.34516
 30
 0
 11
0.83390
 21
5.34106
  0
LINE
  8
Engraving
 62
   255
 39
0.008
  6
CONTINUOUS
 10
0.83390
 20
5.34106
 30
 0
 11
0.83461
 21
5.33685
  0
LINE
  8
Engraving
 62
   255
 39
0.008
  6
CONTINUOUS
 10
0.83461
 20
5.33685
 30
 0
 11
0.83472
 21
5.33354
  0
LINE
  8
Engraving
 62
   255
 39
0.008
  6
CONTINUOUS
 10
0.86484
 20
5.36307
 30
 0
 11
0.91272
 21
5.36307
  0
LINE
  8
Engraving
 62
   255
 39
0.008
  6
CONTINUOUS
 10
0.91272
 20
5.36307
 30
 0
 11
0.88878
 21
5.36307
  0
LINE
  8
Engraving
 62
   255
 39
0.008
  6
CONTINUOUS
 10
0.88878
 20
5.36307
 30
 0
 11
0.88878
 21
5.24496
  0
LINE
  8
Engraving
 62
   255
 39
0.008
  6
CONTINUOUS
 10
0.94283
 20
5.24496
 30
 0
 11
0.97472
 21
5.36307
  0
LINE
  8
Engraving
 62
   255
 39
0.008
  6
CONTINUOUS
 10
0.97472
 20
5.36307
 30
 0
 11
1.00661
 21
5.24496
  0
LINE
  8
Engraving
 62
   255
 39
0.008
  6
CONTINUOUS
 10
0.95346
 20
5.28039
 30
 0
 11
0.99598
 21
5.28039
  0
LINE
  8
Engraving
 62
   255
 39
0.008
  6
CONTINUOUS
 10
1.03673
 20
5.36307
 30
 0
 11
1.03673
 21
5.24496
  0
LINE
  8
Engraving
 62
   255
 39
0.008
  6
CONTINUOUS
 10
1.06685
 20
5.24496
 30
 0
 11
1.06685
 21
5.36307
  0
LINE
  8
Engraving
 62
   255
 39
0.008
  6
CONTINUOUS
 10
1.06685
 20
5.36307
 30
 0
 11
1.11469
 21
5.24496
  0
LINE
  8
Engraving
 62
   255
 39
0.008
  6
CONTINUOUS
 10
1.11469
 20
5.24496
 30
 0
 11
1.11469
 21
5.36307
  0
ARC
  8
Engraving
 62
   255
 39
0.008
  6
CONTINUOUS
 10
0.13748
 20
4.60264
 30
 0
 40
0.01949
 50
91.50439
 51
-174.78461
  0
ARC
  8
Engraving
 62
   255
 39
0.008
  6
CONTINUOUS
 10
0.13795
 20
4.60157
 30
 0
 40
0.02059
 50
330.44533
 51
92.74196
  0
LINE
  8
Engraving
 62
   255
 39
0.008
  6
CONTINUOUS
 10
0.15587
 20
4.59142
 30
 0
 11
0.11807
 21
4.52764
  0
LINE
  8
Engraving
 62
   255
 39
0.008
  6
CONTINUOUS
 10
0.11807
 20
4.52764
 30
 0
 11
0.15823
 21
4.52764
  0
ARC
  8
Engraving
 62
   255
 39
0.008
  6
CONTINUOUS
 10
0.23386
 20
4.96685
 30
 0
 40
0.01937
 50
434.80614
 51
175.92268
  0
ARC
  8
Engraving
 62
   255
 39
0.008
  6
CONTINUOUS
 10
0.23346
 20
4.96535
 30
 0
 40
0.02091
 50
263.39742
 51
74.83943
  0
ARC
  8
Engraving
 62
   255
 39
0.008
  6
CONTINUOUS
 10
0.23425
 20
4.91902
 30
 0
 40
0.02579
 50
285.86128
 51
97.10332
  0
ARC
  8
Engraving
 62
   255
 39
0.008
  6
CONTINUOUS
 10
0.23480
 20
4.91602
 30
 0
 40
0.02276
 50
185.36509
 51
-73.41468
  0
LINE
  8
Engraving
 62
   255
 39
0.008
  6
CONTINUOUS
 10
0.51390
 20
5.25433
 30
 0
 11
0.48319
 21
5.18346
  0
LINE
  8
Engraving
 62
   255
 39
0.008
  6
CONTINUOUS
 10
0.48319
 20
5.18346
 30
 0
 11
0.52335
 21
5.18346
  0
LINE
  8
Engraving
 62
   255
 39
0.008
  6
CONTINUOUS
 10
0.51390
 20
5.20709
 30
 0
 11
0.51390
 21
5.15984
  0
LINE
  8
Engraving
 62
   255
 39
0.008
  6
CONTINUOUS
 10
0.22543
 20
4.23350
 30
 0
 11
0.24669
 21
4.25713
  0
LINE
  8
Engraving
 62
   255
 39
0.008
  6
CONTINUOUS
 10
0.24669
 20
4.25713
 30
 0
 11
0.24669
 21
4.16264
  0
ARC
  8
Engraving
 62
   255
 39
0.008
  6
CONTINUOUS
 10
0.50327
 20
3.91669
 30
 0
 40
0.02126
 50
180.00000
 51
360.00000
  0
LINE
  8
Engraving
 62
   255
 39
0.008
  6
CONTINUOUS
 10
0.52453
 20
3.91669
 30
 0
 11
0.52453
 21
3.96866
  0
ARC
  8
Engraving
 62
   255
 39
0.008
  6
CONTINUOUS
 10
0.50327
 20
3.96866
 30
 0
 40
0.02126
 50
0.00000
 51
180.00000
  0
LINE
  8
Engraving
 62
   255
 39
0.008
  6
CONTINUOUS
 10
0.48201
 20
3.96866
 30
 0
 11
0.48201
 21
3.91669
  0
LINE
  8
Engraving
 62
   255
 39
0.008
  6
CONTINUOUS
 10
1.18799
 20
3.96630
 30
 0
 11
1.20925
 21
3.98992
  0
LINE
  8
Engraving
 62
   255
 39
0.008
  6
CONTINUOUS
 10
1.20925
 20
3.98992
 30
 0
 11
1.20925
 21
3.89543
  0
ARC
  8
Engraving
 62
   255
 39
0.008
  6
CONTINUOUS
 10
1.25728
 20
3.91669
 30
 0
 40
0.02126
 50
180.00000
 51
360.00000
  0
LINE
  8
Engraving
 62
   255
 39
0.008
  6
CONTINUOUS
 10
1.27854
 20
3.91669
 30
 0
 11
1.27854
 21
3.96866
  0
ARC
  8
Engraving
 62
   255
 39
0.008
  6
CONTINUOUS
 10
1.25728
 20
3.96866
 30
 0
 40
0.02126
 50
0.00000
 51
180.00000
  0
LINE
  8
Engraving
 62
   255
 39
0.008
  6
CONTINUOUS
 10
1.23602
 20
3.96866
 30
 0
 11
1.23602
 21
3.91669
  0
ARC
  8
Engraving
 62
   255
 39
0.008
  6
CONTINUOUS
 10
1.50244
 20
4.18343
 30
 0
 40
0.02087
 50
178.70296
 51
264.59040
  0
ARC
  8
Engraving
 62
   255
 39
0.008
  6
CONTINUOUS
 10
1.49976
 20
4.18224
 30
 0
 40
0.01961
 50
-87.92997
 51
-2.07003
  0
LINE
  8
Engraving
 62
   255
 39
0.008
  6
CONTINUOUS
 10
1.51937
 20
4.18154
 30
 0
 11
1.51937
 21
4.23823
  0
ARC
  8
Engraving
 62
   255
 39
0.008
  6
CONTINUOUS
 10
1.50047
 20
4.23823
 30
 0
 40
0.01890
 50
0.00000
 51
180.00000
  0
LINE
  8
Engraving
 62
   255
 39
0.008
  6
CONTINUOUS
 10
1.48157
 20
4.23823
 30
 0
 11
1.48157
 21
4.22406
  0
ARC
  8
Engraving
 62
   255
 39
0.008
  6
CONTINUOUS
 10
1.50106
 20
4.22630
 30
 0
 40
0.01961
 50
-173.43124
 51
-20.83908
  0
ARC
  8
Engraving
 62
   255
 39
0.008
  6
CONTINUOUS
 10
1.59839
 20
4.54799
 30
 0
 40
0.02035
 50
-90.33247
 51
0.33247
  0
LINE
  8
Engraving
 62
   255
 39
0.008
  6
CONTINUOUS
 10
1.61874
 20
4.54811
 30
 0
 11
1.61874
 21
4.55520
  0
ARC
  8
Engraving
 62
   255
 39
0.008
  6
CONTINUOUS
 10
1.59878
 20
4.55492
 30
 0
 40
0.01996
 50
0.79102
 51
91.46880
  0
ARC
  8
Engraving
 62
   255
 39
0.008
  6
CONTINUOUS
 10
1.59839
 20
4.59366
 30
 0
 40
0.01878
 50
-90.36035
 51
0.36035
  0
LINE
  8
Engraving
 62
   255
 39
0.008
  6
CONTINUOUS
 10
1.61717
 20
4.59378
 30
 0
 11
1.61717
 21
4.60323
  0
ARC
  8
Engraving
 62
   255
 39
0.008
  6
CONTINUOUS
 10
1.59827
 20
4.60323
 30
 0
 40
0.01890
 50
0.00000
 51
180.00000
  0
LINE
  8
Engraving
 62
   255
 39
0.008
  6
CONTINUOUS
 10
1.57937
 20
4.60323
 30
 0
 11
1.57937
 21
4.59378
  0
ARC
  8
Engraving
 62
   255
 39
0.008
  6
CONTINUOUS
 10
1.59815
 20
4.59366
 30
 0
 40
0.01878
 50
179.63965
 51
270.36035
  0
ARC
  8
Engraving
 62
   255
 39
0.008
  6
CONTINUOUS
 10
1.59776
 20
4.55492
 30
 0
 40
0.01996
 50
88.53120
 51
179.20898
  0
LINE
  8
Engraving
 62
   255
 39
0.008
  6
CONTINUOUS
 10
1.57780
 20
4.55520
 30
 0
 11
1.57780
 21
4.54811
  0
ARC
  8
Engraving
 62
   255
 39
0.008
  6
CONTINUOUS
 10
1.59815
 20
4.54799
 30
 0
 40
0.02035
 50
179.66753
 51
270.33247
  0
LINE
  8
Engraving
 62
   255
 39
0.008
  6
CONTINUOUS
 10
1.48039
 20
4.97059
 30
 0
 11
1.48039
 21
4.98713
  0
LINE
  8
Engraving
 62
   255
 39
0.008
  6
CONTINUOUS
 10
1.48039
 20
4.98713
 30
 0
 11
1.52055
 21
4.98713
  0
LINE
  8
Engraving
 62
   255
 39
0.008
  6
CONTINUOUS
 10
1.52055
 20
4.98713
 30
 0
 11
1.48984
 21
4.89264
  0
ARC
  8
Engraving
 62
   255
 39
0.008
  6
CONTINUOUS
 10
1.23252
 20
5.23354
 30
 0
 40
0.02087
 50
-1.29704
 51
84.59040
  0
ARC
  8
Engraving
 62
   255
 39
0.008
  6
CONTINUOUS
 10
1.23272
 20
5.23492
 30
 0
 40
0.01949
 50
84.78461
 51
178.49561
  0
LINE
  8
Engraving
 62
   255
 39
0.008
  6
CONTINUOUS
 10
1.21323
 20
5.23543
 30
 0
 11
1.21323
 21
5.17874
  0
ARC
  8
Engraving
 62
   255
 39
0.008
  6
CONTINUOUS
 10
1.23433
 20
5.18094
 30
 0
 40
0.02122
 50
-174.03551
 51
-95.96449
  0
ARC
  8
Engraving
 62
   255
 39
0.008
  6
CONTINUOUS
 10
1.23260
 20
5.18071
 30
 0
 40
0.02087
 50
-91.29704
 51
-5.40960
  0
LINE
  8
Engraving
 62
   255
 39
0.008
  6
CONTINUOUS
 10
1.25339
 20
5.17874
 30
 0
 11
1.25339
 21
5.19764
  0
ARC
  8
Engraving
 62
   255
 39
0.008
  6
CONTINUOUS
 10
1.23224
 20
5.19524
 30
 0
 40
0.02126
 50
6.48068
 51
153.48242
  0
LINE
  8
Engraving
 62
   255
 39
0.016
  6
CONTINUOUS
 10
0.81831
 20
4.57681
 30
 0
 11
0.91673
 21
4.57681
  0
LINE
  8
Engraving
 62
   255
 39
0.016
  6
CONTINUOUS
 10
0.86752
 20
4.62602
 30
 0
 11
0.86752
 21
4.52760
  0
LINE
  8
Engraving
 62
   255
 39
0.016
  6
CONTINUOUS
 10
0.55256
 20
4.03130
 30
 0
 11
0.71984
 21
4.32106
  0
LINE
  8
Engraving
 62
   255
 39
0.016
  6
CONTINUOUS
 10
0.71984
 20
4.32106
 30
 0
 11
0.71988
 21
4.32106
  0
LINE
  8
Engraving
 62
   255
 39
0.016
  6
CONTINUOUS
 10
1.18248
 20
4.03130
 30
 0
 11
1.01516
 21
4.32106
  0
LINE
  8
Engraving
 62
   255
 39
0.016
  6
CONTINUOUS
 10
1.01516
 20
4.32106
 30
 0
 11
1.01516
 21
4.32106
  0
LINE
  8
Engraving
 62
   255
 39
0.016
  6
CONTINUOUS
 10
1.12323
 20
4.42913
 30
 0
 11
1.12323
 21
4.42913
  0
LINE
  8
Engraving
 62
   255
 39
0.016
  6
CONTINUOUS
 10
1.12323
 20
4.42913
 30
 0
 11
1.41303
 21
4.26181
  0
LINE
  8
Engraving
 62
   255
 39
0.016
  6
CONTINUOUS
 10
1.49744
 20
4.57681
 30
 0
 11
1.16280
 21
4.57681
  0
LINE
  8
Engraving
 62
   255
 39
0.016
  6
CONTINUOUS
 10
1.16280
 20
4.57681
 30
 0
 11
1.16280
 21
4.57681
  0
LINE
  8
Engraving
 62
   255
 39
0.016
  6
CONTINUOUS
 10
1.12323
 20
4.72445
 30
 0
 11
1.12323
 21
4.72445
  0
LINE
  8
Engraving
 62
   255
 39
0.016
  6
CONTINUOUS
 10
1.12323
 20
4.72445
 30
 0
 11
1.41303
 21
4.89177
  0
LINE
  8
Engraving
 62
   255
 39
0.016
  6
CONTINUOUS
 10
1.18244
 20
5.12232
 30
 0
 11
1.01516
 21
4.83252
  0
LINE
  8
Engraving
 62
   255
 39
0.016
  6
CONTINUOUS
 10
1.01516
 20
4.83252
 30
 0
 11
1.01512
 21
4.83252
  0
LINE
  8
Engraving
 62
   255
 39
0.016
  6
CONTINUOUS
 10
0.86752
 20
4.87209
 30
 0
 11
0.86752
 21
4.87209
  0
LINE
  8
Engraving
 62
   255
 39
0.016
  6
CONTINUOUS
 10
0.86752
 20
4.87209
 30
 0
 11
0.86752
 21
5.20673
  0
LINE
  8
Engraving
 62
   255
 39
0.016
  6
CONTINUOUS
 10
0.55256
 20
5.12232
 30
 0
 11
0.71988
 21
4.83252
  0
LINE
  8
Engraving
 62
   255
 39
0.016
  6
CONTINUOUS
 10
0.71988
 20
4.83252
 30
 0
 11
0.71988
 21
4.83252
  0
LINE
  8
Engraving
 62
   255
 39
0.016
  6
CONTINUOUS
 10
0.61177
 20
4.72445
 30
 0
 11
0.61177
 21
4.72445
  0
LINE
  8
Engraving
 62
   255
 39
0.016
  6
CONTINUOUS
 10
0.61177
 20
4.72445
 30
 0
 11
0.32201
 21
4.89173
  0
LINE
  8
Engraving
 62
   255
 39
0.016
  6
CONTINUOUS
 10
0.23760
 20
4.57681
 30
 0
 11
0.57224
 21
4.57681
  0
LINE
  8
Engraving
 62
   255
 39
0.016
  6
CONTINUOUS
 10
0.57224
 20
4.57681
 30
 0
 11
0.57224
 21
4.57681
  0
LINE
  8
Engraving
 62
   255
 39
0.016
  6
CONTINUOUS
 10
0.61177
 20
4.42917
 30
 0
 11
0.61177
 21
4.42917
  0
LINE
  8
Engraving
 62
   255
 39
0.016
  6
CONTINUOUS
 10
0.61177
 20
4.42917
 30
 0
 11
0.32201
 21
4.26185
  0
LINE
  8
Engraving
 62
   255
 39
0.008
  6
CONTINUOUS
 10
0.81835
 20
4.58008
 30
 0
 11
0.91677
 21
4.58008
  0
LINE
  8
Engraving
 62
   255
 39
0.008
  6
CONTINUOUS
 10
0.86756
 20
4.62929
 30
 0
 11
0.86756
 21
4.53087
  0
LINE
  8
Engraving
 62
   255
 39
0.008
  6
CONTINUOUS
 10
1.29906
 20
4.14854
 30
 0
 11
1.07634
 21
4.37126
  0
LINE
  8
Engraving
 62
   255
 39
0.008
  6
CONTINUOUS
 10
1.07634
 20
4.37126
 30
 0
 11
1.07634
 21
4.37126
  0
LINE
  8
Engraving
 62
   255
 39
0.008
  6
CONTINUOUS
 10
1.15276
 20
4.50366
 30
 0
 11
1.15276
 21
4.50366
  0
LINE
  8
Engraving
 62
   255
 39
0.008
  6
CONTINUOUS
 10
1.15276
 20
4.50366
 30
 0
 11
1.45701
 21
4.42213
  0
LINE
  8
Engraving
 62
   255
 39
0.008
  6
CONTINUOUS
 10
1.45701
 20
4.73799
 30
 0
 11
1.15276
 21
4.65646
  0
LINE
  8
Engraving
 62
   255
 39
0.008
  6
CONTINUOUS
 10
1.15276
 20
4.65646
 30
 0
 11
1.15276
 21
4.65646
  0
LINE
  8
Engraving
 62
   255
 39
0.008
  6
CONTINUOUS
 10
1.07634
 20
4.78886
 30
 0
 11
1.07634
 21
4.78886
  0
LINE
  8
Engraving
 62
   255
 39
0.008
  6
CONTINUOUS
 10
1.07634
 20
4.78886
 30
 0
 11
1.29906
 21
5.01157
  0
LINE
  8
Engraving
 62
   255
 39
0.008
  6
CONTINUOUS
 10
1.02547
 20
5.16953
 30
 0
 11
0.94394
 21
4.86528
  0
LINE
  8
Engraving
 62
   255
 39
0.008
  6
CONTINUOUS
 10
0.94394
 20
4.86528
 30
 0
 11
0.94394
 21
4.86528
  0
LINE
  8
Engraving
 62
   255
 39
0.008
  6
CONTINUOUS
 10
0.79114
 20
4.86528
 30
 0
 11
0.79114
 21
4.86528
  0
LINE
  8
Engraving
 62
   255
 39
0.008
  6
CONTINUOUS
 10
0.79114
 20
4.86528
 30
 0
 11
0.70961
 21
5.16953
  0
LINE
  8
Engraving
 62
   255
 39
0.008
  6
CONTINUOUS
 10
0.43602
 20
5.01157
 30
 0
 11
0.65874
 21
4.78886
  0
LINE
  8
Engraving
 62
   255
 39
0.008
  6
CONTINUOUS
 10
0.65874
 20
4.78886
 30
 0
 11
0.65874
 21
4.78886
  0
LINE
  8
Engraving
 62
   255
 39
0.008
  6
CONTINUOUS
 10
0.58232
 20
4.65646
 30
 0
 11
0.58232
 21
4.65646
  0
LINE
  8
Engraving
 62
   255
 39
0.008
  6
CONTINUOUS
 10
0.58232
 20
4.65646
 30
 0
 11
0.27807
 21
4.73799
  0
LINE
  8
Engraving
 62
   255
 39
0.008
  6
CONTINUOUS
 10
0.27807
 20
4.42213
 30
 0
 11
0.58232
 21
4.50366
  0
LINE
  8
Engraving
 62
   255
 39
0.008
  6
CONTINUOUS
 10
0.58232
 20
4.50366
 30
 0
 11
0.58232
 21
4.50366
  0
LINE
  8
Engraving
 62
   255
 39
0.008
  6
CONTINUOUS
 10
0.65874
 20
4.37126
 30
 0
 11
0.65874
 21
4.37126
  0
LINE
  8
Engraving
 62
   255
 39
0.008
  6
CONTINUOUS
 10
0.65874
 20
4.37126
 30
 0
 11
0.43602
 21
4.14854
  0
LINE
  8
Engraving
 62
   255
 39
0.008
  6
CONTINUOUS
 10
0.60488
 20
3.61858
 30
 0
 11
0.60488
 21
3.73669
  0
LINE
  8
Engraving
 62
   255
 39
0.008
  6
CONTINUOUS
 10
0.60488
 20
3.73669
 30
 0
 11
0.62882
 21
3.73669
  0
LINE
  8
Engraving
 62
   255
 39
0.008
  6
CONTINUOUS
 10
0.62882
 20
3.73669
 30
 0
 11
0.63276
 21
3.73638
  0
LINE
  8
Engraving
 62
   255
 39
0.008
  6
CONTINUOUS
 10
0.63276
 20
3.73638
 30
 0
 11
0.63665
 21
3.73539
  0
LINE
  8
Engraving
 62
   255
 39
0.008
  6
CONTINUOUS
 10
0.63665
 20
3.73539
 30
 0
 11
0.64031
 21
3.73378
  0
LINE
  8
Engraving
 62
   255
 39
0.008
  6
CONTINUOUS
 10
0.64031
 20
3.73378
 30
 0
 11
0.64374
 21
3.73157
  0
LINE
  8
Engraving
 62
   255
 39
0.008
  6
CONTINUOUS
 10
0.64374
 20
3.73157
 30
 0
 11
0.64689
 21
3.72882
  0
LINE
  8
Engraving
 62
   255
 39
0.008
  6
CONTINUOUS
 10
0.64689
 20
3.72882
 30
 0
 11
0.64957
 21
3.72559
  0
LINE
  8
Engraving
 62
   255
 39
0.008
  6
CONTINUOUS
 10
0.64957
 20
3.72559
 30
 0
 11
0.65185
 21
3.72193
  0
LINE
  8
Engraving
 62
   255
 39
0.008
  6
CONTINUOUS
 10
0.65185
 20
3.72193
 30
 0
 11
0.65354
 21
3.71795
  0
LINE
  8
Engraving
 62
   255
 39
0.008
  6
CONTINUOUS
 10
0.65354
 20
3.71795
 30
 0
 11
0.65472
 21
3.71374
  0
LINE
  8
Engraving
 62
   255
 39
0.008
  6
CONTINUOUS
 10
0.65472
 20
3.71374
 30
 0
 11
0.65531
 21
3.70937
  0
LINE
  8
Engraving
 62
   255
 39
0.008
  6
CONTINUOUS
 10
0.65531
 20
3.70937
 30
 0
 11
0.65531
 21
3.70496
  0
LINE
  8
Engraving
 62
   255
 39
0.008
  6
CONTINUOUS
 10
0.65531
 20
3.70496
 30
 0
 11
0.65472
 21
3.70059
  0
LINE
  8
Engraving
 62
   255
 39
0.008
  6
CONTINUOUS
 10
0.65472
 20
3.70059
 30
 0
 11
0.65354
 21
3.69638
  0
LINE
  8
Engraving
 62
   255
 39
0.008
  6
CONTINUOUS
 10
0.65354
 20
3.69638
 30
 0
 11
0.65185
 21
3.69240
  0
LINE
  8
Engraving
 62
   255
 39
0.008
  6
CONTINUOUS
 10
0.65185
 20
3.69240
 30
 0
 11
0.64957
 21
3.68874
  0
LINE
  8
Engraving
 62
   255
 39
0.008
  6
CONTINUOUS
 10
0.64957
 20
3.68874
 30
 0
 11
0.64689
 21
3.68551
  0
LINE
  8
Engraving
 62
   255
 39
0.008
  6
CONTINUOUS
 10
0.64689
 20
3.68551
 30
 0
 11
0.64374
 21
3.68276
  0
LINE
  8
Engraving
 62
   255
 39
0.008
  6
CONTINUOUS
 10
0.64374
 20
3.68276
 30
 0
 11
0.64031
 21
3.68055
  0
LINE
  8
Engraving
 62
   255
 39
0.008
  6
CONTINUOUS
 10
0.64031
 20
3.68055
 30
 0
 11
0.63665
 21
3.67894
  0
LINE
  8
Engraving
 62
   255
 39
0.008
  6
CONTINUOUS
 10
0.63665
 20
3.67894
 30
 0
 11
0.63276
 21
3.67795
  0
LINE
  8
Engraving
 62
   255
 39
0.008
  6
CONTINUOUS
 10
0.63276
 20
3.67795
 30
 0
 11
0.62882
 21
3.67764
  0
LINE
  8
Engraving
 62
   255
 39
0.008
  6
CONTINUOUS
 10
0.62882
 20
3.67764
 30
 0
 11
0.62882
 21
3.67764
  0
LINE
  8
Engraving
 62
   255
 39
0.008
  6
CONTINUOUS
 10
0.62882
 20
3.67764
 30
 0
 11
0.60488
 21
3.67764
  0
LINE
  8
Engraving
 62
   255
 39
0.008
  6
CONTINUOUS
 10
0.60488
 20
3.67764
 30
 0
 11
0.62882
 21
3.67764
  0
LINE
  8
Engraving
 62
   255
 39
0.008
  6
CONTINUOUS
 10
0.62882
 20
3.67764
 30
 0
 11
0.65539
 21
3.61858
  0
LINE
  8
Engraving
 62
   255
 39
0.008
  6
CONTINUOUS
 10
0.73335
 20
3.73669
 30
 0
 11
0.68551
 21
3.73669
  0
LINE
  8
Engraving
 62
   255
 39
0.008
  6
CONTINUOUS
 10
0.68551
 20
3.73669
 30
 0
 11
0.68551
 21
3.61858
  0
LINE
  8
Engraving
 62
   255
 39
0.008
  6
CONTINUOUS
 10
0.68551
 20
3.61858
 30
 0
 11
0.73335
 21
3.61858
  0
LINE
  8
Engraving
 62
   255
 39
0.008
  6
CONTINUOUS
 10
0.68551
 20
3.67764
 30
 0
 11
0.72535
 21
3.67764
  0
LINE
  8
Engraving
 62
   255
 39
0.008
  6
CONTINUOUS
 10
0.76256
 20
3.73669
 30
 0
 11
0.76256
 21
3.61858
  0
LINE
  8
Engraving
 62
   255
 39
0.008
  6
CONTINUOUS
 10
0.76256
 20
3.61858
 30
 0
 11
0.79713
 21
3.61858
  0
LINE
  8
Engraving
 62
   255
 39
0.008
  6
CONTINUOUS
 10
0.87508
 20
3.73669
 30
 0
 11
0.82724
 21
3.73669
  0
LINE
  8
Engraving
 62
   255
 39
0.008
  6
CONTINUOUS
 10
0.82724
 20
3.73669
 30
 0
 11
0.82724
 21
3.61858
  0
LINE
  8
Engraving
 62
   255
 39
0.008
  6
CONTINUOUS
 10
0.82724
 20
3.61858
 30
 0
 11
0.87508
 21
3.61858
  0
LINE
  8
Engraving
 62
   255
 39
0.008
  6
CONTINUOUS
 10
0.82724
 20
3.67764
 30
 0
 11
0.86709
 21
3.67764
  0
LINE
  8
Engraving
 62
   255
 39
0.008
  6
CONTINUOUS
 10
0.90520
 20
3.61858
 30
 0
 11
0.93709
 21
3.73669
  0
LINE
  8
Engraving
 62
   255
 39
0.008
  6
CONTINUOUS
 10
0.93709
 20
3.73669
 30
 0
 11
0.96898
 21
3.61858
  0
LINE
  8
Engraving
 62
   255
 39
0.008
  6
CONTINUOUS
 10
0.91583
 20
3.65402
 30
 0
 11
0.95835
 21
3.65402
  0
LINE
  8
Engraving
 62
   255
 39
0.008
  6
CONTINUOUS
 10
0.99909
 20
3.64811
 30
 0
 11
0.99937
 21
3.64370
  0
LINE
  8
Engraving
 62
   255
 39
0.008
  6
CONTINUOUS
 10
0.99937
 20
3.64370
 30
 0
 11
1.00024
 21
3.63941
  0
LINE
  8
Engraving
 62
   255
 39
0.008
  6
CONTINUOUS
 10
1.00024
 20
3.63941
 30
 0
 11
1.00169
 21
3.63531
  0
LINE
  8
Engraving
 62
   255
 39
0.008
  6
CONTINUOUS
 10
1.00169
 20
3.63531
 30
 0
 11
1.00370
 21
3.63150
  0
LINE
  8
Engraving
 62
   255
 39
0.008
  6
CONTINUOUS
 10
1.00370
 20
3.63150
 30
 0
 11
1.00618
 21
3.62803
  0
LINE
  8
Engraving
 62
   255
 39
0.008
  6
CONTINUOUS
 10
1.00618
 20
3.62803
 30
 0
 11
1.00909
 21
3.62504
  0
LINE
  8
Engraving
 62
   255
 39
0.008
  6
CONTINUOUS
 10
1.00909
 20
3.62504
 30
 0
 11
1.01236
 21
3.62252
  0
LINE
  8
Engraving
 62
   255
 39
0.008
  6
CONTINUOUS
 10
1.01236
 20
3.62252
 30
 0
 11
1.01594
 21
3.62063
  0
LINE
  8
Engraving
 62
   255
 39
0.008
  6
CONTINUOUS
 10
1.01594
 20
3.62063
 30
 0
 11
1.01972
 21
3.61933
  0
LINE
  8
Engraving
 62
   255
 39
0.008
  6
CONTINUOUS
 10
1.01972
 20
3.61933
 30
 0
 11
1.02366
 21
3.61866
  0
LINE
  8
Engraving
 62
   255
 39
0.008
  6
CONTINUOUS
 10
1.02366
 20
3.61866
 30
 0
 11
1.02764
 21
3.61866
  0
LINE
  8
Engraving
 62
   255
 39
0.008
  6
CONTINUOUS
 10
1.02764
 20
3.61866
 30
 0
 11
1.03157
 21
3.61933
  0
LINE
  8
Engraving
 62
   255
 39
0.008
  6
CONTINUOUS
 10
1.03157
 20
3.61933
 30
 0
 11
1.03535
 21
3.62063
  0
LINE
  8
Engraving
 62
   255
 39
0.008
  6
CONTINUOUS
 10
1.03535
 20
3.62063
 30
 0
 11
1.03894
 21
3.62252
  0
LINE
  8
Engraving
 62
   255
 39
0.008
  6
CONTINUOUS
 10
1.03894
 20
3.62252
 30
 0
 11
1.04224
 21
3.62504
  0
LINE
  8
Engraving
 62
   255
 39
0.008
  6
CONTINUOUS
 10
1.04224
 20
3.62504
 30
 0
 11
1.04516
 21
3.62803
  0
LINE
  8
Engraving
 62
   255
 39
0.008
  6
CONTINUOUS
 10
1.04516
 20
3.62803
 30
 0
 11
1.04764
 21
3.63150
  0
LINE
  8
Engraving
 62
   255
 39
0.008
  6
CONTINUOUS
 10
1.04764
 20
3.63150
 30
 0
 11
1.04961
 21
3.63531
  0
LINE
  8
Engraving
 62
   255
 39
0.008
  6
CONTINUOUS
 10
1.04961
 20
3.63531
 30
 0
 11
1.05106
 21
3.63941
  0
LINE
  8
Engraving
 62
   255
 39
0.008
  6
CONTINUOUS
 10
1.05106
 20
3.63941
 30
 0
 11
1.05197
 21
3.64370
  0
LINE
  8
Engraving
 62
   255
 39
0.008
  6
CONTINUOUS
 10
1.05197
 20
3.64370
 30
 0
 11
1.05224
 21
3.64811
  0
LINE
  8
Engraving
 62
   255
 39
0.008
  6
CONTINUOUS
 10
1.05224
 20
3.64811
 30
 0
 11
1.05224
 21
3.64811
  0
LINE
  8
Engraving
 62
   255
 39
0.008
  6
CONTINUOUS
 10
1.05224
 20
3.64811
 30
 0
 11
1.05197
 21
3.65232
  0
LINE
  8
Engraving
 62
   255
 39
0.008
  6
CONTINUOUS
 10
1.05197
 20
3.65232
 30
 0
 11
1.05122
 21
3.65646
  0
LINE
  8
Engraving
 62
   255
 39
0.008
  6
CONTINUOUS
 10
1.05122
 20
3.65646
 30
 0
 11
1.04984
 21
3.66039
  0
LINE
  8
Engraving
 62
   255
 39
0.008
  6
CONTINUOUS
 10
1.04984
 20
3.66039
 30
 0
 11
1.04807
 21
3.66409
  0
LINE
  8
Engraving
 62
   255
 39
0.008
  6
CONTINUOUS
 10
1.04807
 20
3.66409
 30
 0
 11
1.04579
 21
3.66748
  0
LINE
  8
Engraving
 62
   255
 39
0.008
  6
CONTINUOUS
 10
1.04579
 20
3.66748
 30
 0
 11
1.04311
 21
3.67047
  0
LINE
  8
Engraving
 62
   255
 39
0.008
  6
CONTINUOUS
 10
1.04311
 20
3.67047
 30
 0
 11
1.04004
 21
3.67299
  0
LINE
  8
Engraving
 62
   255
 39
0.008
  6
CONTINUOUS
 10
1.04004
 20
3.67299
 30
 0
 11
1.03673
 21
3.67500
  0
LINE
  8
Engraving
 62
   255
 39
0.008
  6
CONTINUOUS
 10
1.03673
 20
3.67500
 30
 0
 11
1.03319
 21
3.67650
  0
LINE
  8
Engraving
 62
   255
 39
0.008
  6
CONTINUOUS
 10
1.03319
 20
3.67650
 30
 0
 11
1.02945
 21
3.67736
  0
LINE
  8
Engraving
 62
   255
 39
0.008
  6
CONTINUOUS
 10
1.02945
 20
3.67736
 30
 0
 11
1.02567
 21
3.67764
  0
LINE
  8
Engraving
 62
   255
 39
0.008
  6
CONTINUOUS
 10
1.02567
 20
3.67764
 30
 0
 11
1.02567
 21
3.67764
  0
LINE
  8
Engraving
 62
   255
 39
0.008
  6
CONTINUOUS
 10
1.02567
 20
3.67764
 30
 0
 11
1.02169
 21
3.67795
  0
LINE
  8
Engraving
 62
   255
 39
0.008
  6
CONTINUOUS
 10
1.02169
 20
3.67795
 30
 0
 11
1.01783
 21
3.67894
  0
LINE
  8
Engraving
 62
   255
 39
0.008
  6
CONTINUOUS
 10
1.01783
 20
3.67894
 30
 0
 11
1.01413
 21
3.68055
  0
LINE
  8
Engraving
 62
   255
 39
0.008
  6
CONTINUOUS
 10
1.01413
 20
3.68055
 30
 0
 11
1.01071
 21
3.68276
  0
LINE
  8
Engraving
 62
   255
 39
0.008
  6
CONTINUOUS
 10
1.01071
 20
3.68276
 30
 0
 11
1.00760
 21
3.68551
  0
LINE
  8
Engraving
 62
   255
 39
0.008
  6
CONTINUOUS
 10
1.00760
 20
3.68551
 30
 0
 11
1.00488
 21
3.68874
  0
LINE
  8
Engraving
 62
   255
 39
0.008
  6
CONTINUOUS
 10
1.00488
 20
3.68874
 30
 0
 11
1.00264
 21
3.69240
  0
LINE
  8
Engraving
 62
   255
 39
0.008
  6
CONTINUOUS
 10
1.00264
 20
3.69240
 30
 0
 11
1.00094
 21
3.69638
  0
LINE
  8
Engraving
 62
   255
 39
0.008
  6
CONTINUOUS
 10
1.00094
 20
3.69638
 30
 0
 11
0.99976
 21
3.70059
  0
LINE
  8
Engraving
 62
   255
 39
0.008
  6
CONTINUOUS
 10
0.99976
 20
3.70059
 30
 0
 11
0.99917
 21
3.70496
  0
LINE
  8
Engraving
 62
   255
 39
0.008
  6
CONTINUOUS
 10
0.99917
 20
3.70496
 30
 0
 11
0.99917
 21
3.70937
  0
LINE
  8
Engraving
 62
   255
 39
0.008
  6
CONTINUOUS
 10
0.99917
 20
3.70937
 30
 0
 11
0.99976
 21
3.71374
  0
LINE
  8
Engraving
 62
   255
 39
0.008
  6
CONTINUOUS
 10
0.99976
 20
3.71374
 30
 0
 11
1.00094
 21
3.71795
  0
LINE
  8
Engraving
 62
   255
 39
0.008
  6
CONTINUOUS
 10
1.00094
 20
3.71795
 30
 0
 11
1.00264
 21
3.72193
  0
LINE
  8
Engraving
 62
   255
 39
0.008
  6
CONTINUOUS
 10
1.00264
 20
3.72193
 30
 0
 11
1.00488
 21
3.72559
  0
LINE
  8
Engraving
 62
   255
 39
0.008
  6
CONTINUOUS
 10
1.00488
 20
3.72559
 30
 0
 11
1.00760
 21
3.72882
  0
LINE
  8
Engraving
 62
   255
 39
0.008
  6
CONTINUOUS
 10
1.00760
 20
3.72882
 30
 0
 11
1.01071
 21
3.73157
  0
LINE
  8
Engraving
 62
   255
 39
0.008
  6
CONTINUOUS
 10
1.01071
 20
3.73157
 30
 0
 11
1.01413
 21
3.73378
  0
LINE
  8
Engraving
 62
   255
 39
0.008
  6
CONTINUOUS
 10
1.01413
 20
3.73378
 30
 0
 11
1.01783
 21
3.73539
  0
LINE
  8
Engraving
 62
   255
 39
0.008
  6
CONTINUOUS
 10
1.01783
 20
3.73539
 30
 0
 11
1.02169
 21
3.73638
  0
LINE
  8
Engraving
 62
   255
 39
0.008
  6
CONTINUOUS
 10
1.02169
 20
3.73638
 30
 0
 11
1.02567
 21
3.73669
  0
LINE
  8
Engraving
 62
   255
 39
0.008
  6
CONTINUOUS
 10
1.02567
 20
3.73669
 30
 0
 11
1.02567
 21
3.73669
  0
LINE
  8
Engraving
 62
   255
 39
0.008
  6
CONTINUOUS
 10
1.02567
 20
3.73669
 30
 0
 11
1.02953
 21
3.73642
  0
LINE
  8
Engraving
 62
   255
 39
0.008
  6
CONTINUOUS
 10
1.02953
 20
3.73642
 30
 0
 11
1.03331
 21
3.73547
  0
LINE
  8
Engraving
 62
   255
 39
0.008
  6
CONTINUOUS
 10
1.03331
 20
3.73547
 30
 0
 11
1.03697
 21
3.73394
  0
LINE
  8
Engraving
 62
   255
 39
0.008
  6
CONTINUOUS
 10
1.03697
 20
3.73394
 30
 0
 11
1.04031
 21
3.73185
  0
LINE
  8
Engraving
 62
   255
 39
0.008
  6
CONTINUOUS
 10
1.04031
 20
3.73185
 30
 0
 11
1.04343
 21
3.72921
  0
LINE
  8
Engraving
 62
   255
 39
0.008
  6
CONTINUOUS
 10
1.04343
 20
3.72921
 30
 0
 11
1.04610
 21
3.72614
  0
LINE
  8
Engraving
 62
   255
 39
0.008
  6
CONTINUOUS
 10
1.04610
 20
3.72614
 30
 0
 11
1.04839
 21
3.72260
  0
LINE
  8
Engraving
 62
   255
 39
0.008
  6
CONTINUOUS
 10
1.04839
 20
3.72260
 30
 0
 11
1.05016
 21
3.71878
  0
LINE
  8
Engraving
 62
   255
 39
0.008
  6
CONTINUOUS
 10
1.05016
 20
3.71878
 30
 0
 11
1.05138
 21
3.71469
  0
LINE
  8
Engraving
 62
   255
 39
0.008
  6
CONTINUOUS
 10
1.05138
 20
3.71469
 30
 0
 11
1.05209
 21
3.71047
  0
LINE
  8
Engraving
 62
   255
 39
0.008
  6
CONTINUOUS
 10
1.05209
 20
3.71047
 30
 0
 11
1.05224
 21
3.70717
  0
LINE
  8
Engraving
 62
   255
 39
0.008
  6
CONTINUOUS
 10
1.13020
 20
3.73669
 30
 0
 11
1.08236
 21
3.73669
  0
LINE
  8
Engraving
 62
   255
 39
0.008
  6
CONTINUOUS
 10
1.08236
 20
3.73669
 30
 0
 11
1.08236
 21
3.61858
  0
LINE
  8
Engraving
 62
   255
 39
0.008
  6
CONTINUOUS
 10
1.08236
 20
3.61858
 30
 0
 11
1.13020
 21
3.61858
  0
LINE
  8
Engraving
 62
   255
 39
0.008
  6
CONTINUOUS
 10
1.08236
 20
3.67764
 30
 0
 11
1.12220
 21
3.67764
  0
ARC
  8
Engraving
 62
   255
 39
0.008
  6
CONTINUOUS
 10
0.13748
 20
2.97791
 30
 0
 40
0.01949
 50
91.50439
 51
-174.78461
  0
ARC
  8
Engraving
 62
   255
 39
0.008
  6
CONTINUOUS
 10
0.13795
 20
2.97685
 30
 0
 40
0.02059
 50
330.44533
 51
92.74196
  0
LINE
  8
Engraving
 62
   255
 39
0.008
  6
CONTINUOUS
 10
0.15587
 20
2.96669
 30
 0
 11
0.11807
 21
2.90291
  0
LINE
  8
Engraving
 62
   255
 39
0.008
  6
CONTINUOUS
 10
0.11807
 20
2.90291
 30
 0
 11
0.15823
 21
2.90291
  0
ARC
  8
Engraving
 62
   255
 39
0.008
  6
CONTINUOUS
 10
0.23386
 20
3.34213
 30
 0
 40
0.01937
 50
434.80614
 51
175.92268
  0
ARC
  8
Engraving
 62
   255
 39
0.008
  6
CONTINUOUS
 10
0.23346
 20
3.34063
 30
 0
 40
0.02091
 50
263.39742
 51
74.83943
  0
ARC
  8
Engraving
 62
   255
 39
0.008
  6
CONTINUOUS
 10
0.23425
 20
3.29429
 30
 0
 40
0.02579
 50
285.86128
 51
97.10332
  0
ARC
  8
Engraving
 62
   255
 39
0.008
  6
CONTINUOUS
 10
0.23480
 20
3.29130
 30
 0
 40
0.02276
 50
185.36509
 51
-73.41468
  0
LINE
  8
Engraving
 62
   255
 39
0.008
  6
CONTINUOUS
 10
0.51390
 20
3.62961
 30
 0
 11
0.48319
 21
3.55874
  0
LINE
  8
Engraving
 62
   255
 39
0.008
  6
CONTINUOUS
 10
0.48319
 20
3.55874
 30
 0
 11
0.52335
 21
3.55874
  0
LINE
  8
Engraving
 62
   255
 39
0.008
  6
CONTINUOUS
 10
0.51390
 20
3.58236
 30
 0
 11
0.51390
 21
3.53512
  0
LINE
  8
Engraving
 62
   255
 39
0.008
  6
CONTINUOUS
 10
0.22543
 20
2.60878
 30
 0
 11
0.24669
 21
2.63240
  0
LINE
  8
Engraving
 62
   255
 39
0.008
  6
CONTINUOUS
 10
0.24669
 20
2.63240
 30
 0
 11
0.24669
 21
2.53791
  0
ARC
  8
Engraving
 62
   255
 39
0.008
  6
CONTINUOUS
 10
1.50244
 20
2.55870
 30
 0
 40
0.02087
 50
178.70296
 51
264.59040
  0
ARC
  8
Engraving
 62
   255
 39
0.008
  6
CONTINUOUS
 10
1.49976
 20
2.55752
 30
 0
 40
0.01961
 50
-87.92997
 51
-2.07003
  0
LINE
  8
Engraving
 62
   255
 39
0.008
  6
CONTINUOUS
 10
1.51937
 20
2.55681
 30
 0
 11
1.51937
 21
2.61350
  0
ARC
  8
Engraving
 62
   255
 39
0.008
  6
CONTINUOUS
 10
1.50047
 20
2.61350
 30
 0
 40
0.01890
 50
0.00000
 51
180.00000
  0
LINE
  8
Engraving
 62
   255
 39
0.008
  6
CONTINUOUS
 10
1.48157
 20
2.61350
 30
 0
 11
1.48157
 21
2.59933
  0
ARC
  8
Engraving
 62
   255
 39
0.008
  6
CONTINUOUS
 10
1.50106
 20
2.60157
 30
 0
 40
0.01961
 50
-173.43124
 51
-20.83908
  0
ARC
  8
Engraving
 62
   255
 39
0.008
  6
CONTINUOUS
 10
1.59839
 20
2.92327
 30
 0
 40
0.02035
 50
-90.33247
 51
0.33247
  0
LINE
  8
Engraving
 62
   255
 39
0.008
  6
CONTINUOUS
 10
1.61874
 20
2.92339
 30
 0
 11
1.61874
 21
2.93047
  0
ARC
  8
Engraving
 62
   255
 39
0.008
  6
CONTINUOUS
 10
1.59878
 20
2.93020
 30
 0
 40
0.01996
 50
0.79102
 51
91.46880
  0
ARC
  8
Engraving
 62
   255
 39
0.008
  6
CONTINUOUS
 10
1.59839
 20
2.96894
 30
 0
 40
0.01878
 50
-90.36035
 51
0.36035
  0
LINE
  8
Engraving
 62
   255
 39
0.008
  6
CONTINUOUS
 10
1.61717
 20
2.96906
 30
 0
 11
1.61717
 21
2.97850
  0
ARC
  8
Engraving
 62
   255
 39
0.008
  6
CONTINUOUS
 10
1.59827
 20
2.97850
 30
 0
 40
0.01890
 50
0.00000
 51
180.00000
  0
LINE
  8
Engraving
 62
   255
 39
0.008
  6
CONTINUOUS
 10
1.57937
 20
2.97850
 30
 0
 11
1.57937
 21
2.96906
  0
ARC
  8
Engraving
 62
   255
 39
0.008
  6
CONTINUOUS
 10
1.59815
 20
2.96894
 30
 0
 40
0.01878
 50
179.63965
 51
270.36035
  0
ARC
  8
Engraving
 62
   255
 39
0.008
  6
CONTINUOUS
 10
1.59776
 20
2.93020
 30
 0
 40
0.01996
 50
88.53120
 51
179.20898
  0
LINE
  8
Engraving
 62
   255
 39
0.008
  6
CONTINUOUS
 10
1.57780
 20
2.93047
 30
 0
 11
1.57780
 21
2.92339
  0
ARC
  8
Engraving
 62
   255
 39
0.008
  6
CONTINUOUS
 10
1.59815
 20
2.92327
 30
 0
 40
0.02035
 50
179.66753
 51
270.33247
  0
LINE
  8
Engraving
 62
   255
 39
0.008
  6
CONTINUOUS
 10
1.48039
 20
3.34587
 30
 0
 11
1.48039
 21
3.36240
  0
LINE
  8
Engraving
 62
   255
 39
0.008
  6
CONTINUOUS
 10
1.48039
 20
3.36240
 30
 0
 11
1.52055
 21
3.36240
  0
LINE
  8
Engraving
 62
   255
 39
0.008
  6
CONTINUOUS
 10
1.52055
 20
3.36240
 30
 0
 11
1.48984
 21
3.26791
  0
ARC
  8
Engraving
 62
   255
 39
0.008
  6
CONTINUOUS
 10
1.23252
 20
3.60882
 30
 0
 40
0.02087
 50
-1.29704
 51
84.59040
  0
ARC
  8
Engraving
 62
   255
 39
0.008
  6
CONTINUOUS
 10
1.23272
 20
3.61020
 30
 0
 40
0.01949
 50
84.78461
 51
178.49561
  0
LINE
  8
Engraving
 62
   255
 39
0.008
  6
CONTINUOUS
 10
1.21323
 20
3.61071
 30
 0
 11
1.21323
 21
3.55402
  0
ARC
  8
Engraving
 62
   255
 39
0.008
  6
CONTINUOUS
 10
1.23433
 20
3.55622
 30
 0
 40
0.02122
 50
-174.03551
 51
-95.96449
  0
ARC
  8
Engraving
 62
   255
 39
0.008
  6
CONTINUOUS
 10
1.23260
 20
3.55598
 30
 0
 40
0.02087
 50
-91.29704
 51
-5.40960
  0
LINE
  8
Engraving
 62
   255
 39
0.008
  6
CONTINUOUS
 10
1.25339
 20
3.55402
 30
 0
 11
1.25339
 21
3.57291
  0
ARC
  8
Engraving
 62
   255
 39
0.008
  6
CONTINUOUS
 10
1.23224
 20
3.57051
 30
 0
 40
0.02126
 50
6.48068
 51
153.48242
  0
LINE
  8
Engraving
 62
   255
 39
0.016
  6
CONTINUOUS
 10
0.81831
 20
2.95185
 30
 0
 11
0.91673
 21
2.95185
  0
LINE
  8
Engraving
 62
   255
 39
0.016
  6
CONTINUOUS
 10
0.86752
 20
3.00106
 30
 0
 11
0.86752
 21
2.90264
  0
LINE
  8
Engraving
 62
   255
 39
0.016
  6
CONTINUOUS
 10
0.55256
 20
2.40634
 30
 0
 11
0.71984
 21
2.69610
  0
LINE
  8
Engraving
 62
   255
 39
0.016
  6
CONTINUOUS
 10
0.71984
 20
2.69610
 30
 0
 11
0.71988
 21
2.69610
  0
LINE
  8
Engraving
 62
   255
 39
0.016
  6
CONTINUOUS
 10
1.18248
 20
2.40634
 30
 0
 11
1.01516
 21
2.69610
  0
LINE
  8
Engraving
 62
   255
 39
0.016
  6
CONTINUOUS
 10
1.01516
 20
2.69610
 30
 0
 11
1.01516
 21
2.69610
  0
LINE
  8
Engraving
 62
   255
 39
0.016
  6
CONTINUOUS
 10
1.12323
 20
2.80417
 30
 0
 11
1.12323
 21
2.80417
  0
LINE
  8
Engraving
 62
   255
 39
0.016
  6
CONTINUOUS
 10
1.12323
 20
2.80417
 30
 0
 11
1.41303
 21
2.63685
  0
LINE
  8
Engraving
 62
   255
 39
0.016
  6
CONTINUOUS
 10
1.49744
 20
2.95185
 30
 0
 11
1.16280
 21
2.95185
  0
LINE
  8
Engraving
 62
   255
 39
0.016
  6
CONTINUOUS
 10
1.16280
 20
2.95185
 30
 0
 11
1.16280
 21
2.95185
  0
LINE
  8
Engraving
 62
   255
 39
0.016
  6
CONTINUOUS
 10
1.12323
 20
3.09949
 30
 0
 11
1.12323
 21
3.09949
  0
LINE
  8
Engraving
 62
   255
 39
0.016
  6
CONTINUOUS
 10
1.12323
 20
3.09949
 30
 0
 11
1.41303
 21
3.26681
  0
LINE
  8
Engraving
 62
   255
 39
0.016
  6
CONTINUOUS
 10
1.18244
 20
3.49736
 30
 0
 11
1.01516
 21
3.20756
  0
LINE
  8
Engraving
 62
   255
 39
0.016
  6
CONTINUOUS
 10
1.01516
 20
3.20756
 30
 0
 11
1.01512
 21
3.20756
  0
LINE
  8
Engraving
 62
   255
 39
0.016
  6
CONTINUOUS
 10
0.86752
 20
3.24713
 30
 0
 11
0.86752
 21
3.24713
  0
LINE
  8
Engraving
 62
   255
 39
0.016
  6
CONTINUOUS
 10
0.86752
 20
3.24713
 30
 0
 11
0.86752
 21
3.58177
  0
LINE
  8
Engraving
 62
   255
 39
0.016
  6
CONTINUOUS
 10
0.55256
 20
3.49736
 30
 0
 11
0.71988
 21
3.20756
  0
LINE
  8
Engraving
 62
   255
 39
0.016
  6
CONTINUOUS
 10
0.71988
 20
3.20756
 30
 0
 11
0.71988
 21
3.20756
  0
LINE
  8
Engraving
 62
   255
 39
0.016
  6
CONTINUOUS
 10
0.61177
 20
3.09949
 30
 0
 11
0.61177
 21
3.09949
  0
LINE
  8
Engraving
 62
   255
 39
0.016
  6
CONTINUOUS
 10
0.61177
 20
3.09949
 30
 0
 11
0.32201
 21
3.26677
  0
LINE
  8
Engraving
 62
   255
 39
0.016
  6
CONTINUOUS
 10
0.23760
 20
2.95185
 30
 0
 11
0.57224
 21
2.95185
  0
LINE
  8
Engraving
 62
   255
 39
0.016
  6
CONTINUOUS
 10
0.57224
 20
2.95185
 30
 0
 11
0.57224
 21
2.95185
  0
LINE
  8
Engraving
 62
   255
 39
0.016
  6
CONTINUOUS
 10
0.61177
 20
2.80421
 30
 0
 11
0.61177
 21
2.80421
  0
LINE
  8
Engraving
 62
   255
 39
0.016
  6
CONTINUOUS
 10
0.61177
 20
2.80421
 30
 0
 11
0.32201
 21
2.63689
  0
LINE
  8
Engraving
 62
   255
 39
0.008
  6
CONTINUOUS
 10
0.81835
 20
2.95508
 30
 0
 11
0.91677
 21
2.95508
  0
LINE
  8
Engraving
 62
   255
 39
0.008
  6
CONTINUOUS
 10
0.86756
 20
3.00429
 30
 0
 11
0.86756
 21
2.90587
  0
LINE
  8
Engraving
 62
   255
 39
0.008
  6
CONTINUOUS
 10
1.29906
 20
2.52354
 30
 0
 11
1.07634
 21
2.74626
  0
LINE
  8
Engraving
 62
   255
 39
0.008
  6
CONTINUOUS
 10
1.07634
 20
2.74626
 30
 0
 11
1.07634
 21
2.74626
  0
LINE
  8
Engraving
 62
   255
 39
0.008
  6
CONTINUOUS
 10
1.15276
 20
2.87866
 30
 0
 11
1.15276
 21
2.87866
  0
LINE
  8
Engraving
 62
   255
 39
0.008
  6
CONTINUOUS
 10
1.15276
 20
2.87866
 30
 0
 11
1.45701
 21
2.79713
  0
LINE
  8
Engraving
 62
   255
 39
0.008
  6
CONTINUOUS
 10
1.45701
 20
3.11299
 30
 0
 11
1.15276
 21
3.03146
  0
LINE
  8
Engraving
 62
   255
 39
0.008
  6
CONTINUOUS
 10
1.15276
 20
3.03146
 30
 0
 11
1.15276
 21
3.03146
  0
LINE
  8
Engraving
 62
   255
 39
0.008
  6
CONTINUOUS
 10
1.07634
 20
3.16386
 30
 0
 11
1.07634
 21
3.16386
  0
LINE
  8
Engraving
 62
   255
 39
0.008
  6
CONTINUOUS
 10
1.07634
 20
3.16386
 30
 0
 11
1.29906
 21
3.38657
  0
LINE
  8
Engraving
 62
   255
 39
0.008
  6
CONTINUOUS
 10
1.02547
 20
3.54453
 30
 0
 11
0.94394
 21
3.24028
  0
LINE
  8
Engraving
 62
   255
 39
0.008
  6
CONTINUOUS
 10
0.94394
 20
3.24028
 30
 0
 11
0.94394
 21
3.24028
  0
LINE
  8
Engraving
 62
   255
 39
0.008
  6
CONTINUOUS
 10
0.79114
 20
3.24028
 30
 0
 11
0.79114
 21
3.24028
  0
LINE
  8
Engraving
 62
   255
 39
0.008
  6
CONTINUOUS
 10
0.79114
 20
3.24028
 30
 0
 11
0.70961
 21
3.54453
  0
LINE
  8
Engraving
 62
   255
 39
0.008
  6
CONTINUOUS
 10
0.43602
 20
3.38657
 30
 0
 11
0.65874
 21
3.16386
  0
LINE
  8
Engraving
 62
   255
 39
0.008
  6
CONTINUOUS
 10
0.65874
 20
3.16386
 30
 0
 11
0.65874
 21
3.16386
  0
LINE
  8
Engraving
 62
   255
 39
0.008
  6
CONTINUOUS
 10
0.58232
 20
3.03146
 30
 0
 11
0.58232
 21
3.03146
  0
LINE
  8
Engraving
 62
   255
 39
0.008
  6
CONTINUOUS
 10
0.58232
 20
3.03146
 30
 0
 11
0.27807
 21
3.11299
  0
LINE
  8
Engraving
 62
   255
 39
0.008
  6
CONTINUOUS
 10
0.27807
 20
2.79713
 30
 0
 11
0.58232
 21
2.87866
  0
LINE
  8
Engraving
 62
   255
 39
0.008
  6
CONTINUOUS
 10
0.58232
 20
2.87866
 30
 0
 11
0.58232
 21
2.87866
  0
LINE
  8
Engraving
 62
   255
 39
0.008
  6
CONTINUOUS
 10
0.65874
 20
2.74626
 30
 0
 11
0.65874
 21
2.74626
  0
LINE
  8
Engraving
 62
   255
 39
0.008
  6
CONTINUOUS
 10
0.65874
 20
2.74626
 30
 0
 11
0.43602
 21
2.52354
  0
LINE
  8
Engraving
 62
   255
 39
0.008
  6
CONTINUOUS
 10
0.64075
 20
8.49496
 30
 0
 11
0.67264
 21
8.61307
  0
LINE
  8
Engraving
 62
   255
 39
0.008
  6
CONTINUOUS
 10
0.67264
 20
8.61307
 30
 0
 11
0.70453
 21
8.49496
  0
LINE
  8
Engraving
 62
   255
 39
0.008
  6
CONTINUOUS
 10
0.65138
 20
8.53039
 30
 0
 11
0.69390
 21
8.53039
  0
LINE
  8
Engraving
 62
   255
 39
0.008
  6
CONTINUOUS
 10
0.73465
 20
8.61307
 30
 0
 11
0.78248
 21
8.61307
  0
LINE
  8
Engraving
 62
   255
 39
0.008
  6
CONTINUOUS
 10
0.78248
 20
8.61307
 30
 0
 11
0.75854
 21
8.61307
  0
LINE
  8
Engraving
 62
   255
 39
0.008
  6
CONTINUOUS
 10
0.75854
 20
8.61307
 30
 0
 11
0.75854
 21
8.49496
  0
LINE
  8
Engraving
 62
   255
 39
0.008
  6
CONTINUOUS
 10
0.81260
 20
8.61307
 30
 0
 11
0.86043
 21
8.61307
  0
LINE
  8
Engraving
 62
   255
 39
0.008
  6
CONTINUOUS
 10
0.86043
 20
8.61307
 30
 0
 11
0.83650
 21
8.61307
  0
LINE
  8
Engraving
 62
   255
 39
0.008
  6
CONTINUOUS
 10
0.83650
 20
8.61307
 30
 0
 11
0.83650
 21
8.49496
  0
LINE
  8
Engraving
 62
   255
 39
0.008
  6
CONTINUOUS
 10
0.89055
 20
8.49496
 30
 0
 11
0.92244
 21
8.61307
  0
LINE
  8
Engraving
 62
   255
 39
0.008
  6
CONTINUOUS
 10
0.92244
 20
8.61307
 30
 0
 11
0.95433
 21
8.49496
  0
LINE
  8
Engraving
 62
   255
 39
0.008
  6
CONTINUOUS
 10
0.90118
 20
8.53039
 30
 0
 11
0.94370
 21
8.53039
  0
LINE
  8
Engraving
 62
   255
 39
0.008
  6
CONTINUOUS
 10
1.03051
 20
8.58748
 30
 0
 11
1.03028
 21
8.59130
  0
LINE
  8
Engraving
 62
   255
 39
0.008
  6
CONTINUOUS
 10
1.03028
 20
8.59130
 30
 0
 11
1.02949
 21
8.59504
  0
LINE
  8
Engraving
 62
   255
 39
0.008
  6
CONTINUOUS
 10
1.02949
 20
8.59504
 30
 0
 11
1.02823
 21
8.59858
  0
LINE
  8
Engraving
 62
   255
 39
0.008
  6
CONTINUOUS
 10
1.02823
 20
8.59858
 30
 0
 11
1.02650
 21
8.60189
  0
LINE
  8
Engraving
 62
   255
 39
0.008
  6
CONTINUOUS
 10
1.02650
 20
8.60189
 30
 0
 11
1.02433
 21
8.60488
  0
LINE
  8
Engraving
 62
   255
 39
0.008
  6
CONTINUOUS
 10
1.02433
 20
8.60488
 30
 0
 11
1.02185
 21
8.60748
  0
LINE
  8
Engraving
 62
   255
 39
0.008
  6
CONTINUOUS
 10
1.02185
 20
8.60748
 30
 0
 11
1.01902
 21
8.60965
  0
LINE
  8
Engraving
 62
   255
 39
0.008
  6
CONTINUOUS
 10
1.01902
 20
8.60965
 30
 0
 11
1.01587
 21
8.61130
  0
LINE
  8
Engraving
 62
   255
 39
0.008
  6
CONTINUOUS
 10
1.01587
 20
8.61130
 30
 0
 11
1.01264
 21
8.61244
  0
LINE
  8
Engraving
 62
   255
 39
0.008
  6
CONTINUOUS
 10
1.01264
 20
8.61244
 30
 0
 11
1.00921
 21
8.61299
  0
LINE
  8
Engraving
 62
   255
 39
0.008
  6
CONTINUOUS
 10
1.00921
 20
8.61299
 30
 0
 11
1.00575
 21
8.61299
  0
LINE
  8
Engraving
 62
   255
 39
0.008
  6
CONTINUOUS
 10
1.00575
 20
8.61299
 30
 0
 11
1.00236
 21
8.61244
  0
LINE
  8
Engraving
 62
   255
 39
0.008
  6
CONTINUOUS
 10
1.00236
 20
8.61244
 30
 0
 11
0.99909
 21
8.61130
  0
LINE
  8
Engraving
 62
   255
 39
0.008
  6
CONTINUOUS
 10
0.99909
 20
8.61130
 30
 0
 11
0.99598
 21
8.60965
  0
LINE
  8
Engraving
 62
   255
 39
0.008
  6
CONTINUOUS
 10
0.99598
 20
8.60965
 30
 0
 11
0.99315
 21
8.60748
  0
LINE
  8
Engraving
 62
   255
 39
0.008
  6
CONTINUOUS
 10
0.99315
 20
8.60748
 30
 0
 11
0.99063
 21
8.60488
  0
LINE
  8
Engraving
 62
   255
 39
0.008
  6
CONTINUOUS
 10
0.99063
 20
8.60488
 30
 0
 11
0.98846
 21
8.60189
  0
LINE
  8
Engraving
 62
   255
 39
0.008
  6
CONTINUOUS
 10
0.98846
 20
8.60189
 30
 0
 11
0.98673
 21
8.59858
  0
LINE
  8
Engraving
 62
   255
 39
0.008
  6
CONTINUOUS
 10
0.98673
 20
8.59858
 30
 0
 11
0.98547
 21
8.59504
  0
LINE
  8
Engraving
 62
   255
 39
0.008
  6
CONTINUOUS
 10
0.98547
 20
8.59504
 30
 0
 11
0.98469
 21
8.59130
  0
LINE
  8
Engraving
 62
   255
 39
0.008
  6
CONTINUOUS
 10
0.98469
 20
8.59130
 30
 0
 11
0.98445
 21
8.58748
  0
LINE
  8
Engraving
 62
   255
 39
0.008
  6
CONTINUOUS
 10
0.98445
 20
8.58748
 30
 0
 11
0.98445
 21
8.58748
  0
LINE
  8
Engraving
 62
   255
 39
0.008
  6
CONTINUOUS
 10
0.98445
 20
8.58748
 30
 0
 11
0.98445
 21
8.52055
  0
LINE
  8
Engraving
 62
   255
 39
0.008
  6
CONTINUOUS
 10
0.98445
 20
8.52055
 30
 0
 11
0.98469
 21
8.51673
  0
LINE
  8
Engraving
 62
   255
 39
0.008
  6
CONTINUOUS
 10
0.98469
 20
8.51673
 30
 0
 11
0.98547
 21
8.51299
  0
LINE
  8
Engraving
 62
   255
 39
0.008
  6
CONTINUOUS
 10
0.98547
 20
8.51299
 30
 0
 11
0.98673
 21
8.50945
  0
LINE
  8
Engraving
 62
   255
 39
0.008
  6
CONTINUOUS
 10
0.98673
 20
8.50945
 30
 0
 11
0.98846
 21
8.50614
  0
LINE
  8
Engraving
 62
   255
 39
0.008
  6
CONTINUOUS
 10
0.98846
 20
8.50614
 30
 0
 11
0.99063
 21
8.50315
  0
LINE
  8
Engraving
 62
   255
 39
0.008
  6
CONTINUOUS
 10
0.99063
 20
8.50315
 30
 0
 11
0.99315
 21
8.50055
  0
LINE
  8
Engraving
 62
   255
 39
0.008
  6
CONTINUOUS
 10
0.99315
 20
8.50055
 30
 0
 11
0.99598
 21
8.49839
  0
LINE
  8
Engraving
 62
   255
 39
0.008
  6
CONTINUOUS
 10
0.99598
 20
8.49839
 30
 0
 11
0.99909
 21
8.49673
  0
LINE
  8
Engraving
 62
   255
 39
0.008
  6
CONTINUOUS
 10
0.99909
 20
8.49673
 30
 0
 11
1.00236
 21
8.49559
  0
LINE
  8
Engraving
 62
   255
 39
0.008
  6
CONTINUOUS
 10
1.00236
 20
8.49559
 30
 0
 11
1.00575
 21
8.49504
  0
LINE
  8
Engraving
 62
   255
 39
0.008
  6
CONTINUOUS
 10
1.00575
 20
8.49504
 30
 0
 11
1.00921
 21
8.49504
  0
LINE
  8
Engraving
 62
   255
 39
0.008
  6
CONTINUOUS
 10
1.00921
 20
8.49504
 30
 0
 11
1.01264
 21
8.49559
  0
LINE
  8
Engraving
 62
   255
 39
0.008
  6
CONTINUOUS
 10
1.01264
 20
8.49559
 30
 0
 11
1.01587
 21
8.49673
  0
LINE
  8
Engraving
 62
   255
 39
0.008
  6
CONTINUOUS
 10
1.01587
 20
8.49673
 30
 0
 11
1.01902
 21
8.49839
  0
LINE
  8
Engraving
 62
   255
 39
0.008
  6
CONTINUOUS
 10
1.01902
 20
8.49839
 30
 0
 11
1.02185
 21
8.50055
  0
LINE
  8
Engraving
 62
   255
 39
0.008
  6
CONTINUOUS
 10
1.02185
 20
8.50055
 30
 0
 11
1.02433
 21
8.50315
  0
LINE
  8
Engraving
 62
   255
 39
0.008
  6
CONTINUOUS
 10
1.02433
 20
8.50315
 30
 0
 11
1.02650
 21
8.50614
  0
LINE
  8
Engraving
 62
   255
 39
0.008
  6
CONTINUOUS
 10
1.02650
 20
8.50614
 30
 0
 11
1.02823
 21
8.50945
  0
LINE
  8
Engraving
 62
   255
 39
0.008
  6
CONTINUOUS
 10
1.02823
 20
8.50945
 30
 0
 11
1.02949
 21
8.51299
  0
LINE
  8
Engraving
 62
   255
 39
0.008
  6
CONTINUOUS
 10
1.02949
 20
8.51299
 30
 0
 11
1.03028
 21
8.51673
  0
LINE
  8
Engraving
 62
   255
 39
0.008
  6
CONTINUOUS
 10
1.03028
 20
8.51673
 30
 0
 11
1.03051
 21
8.52055
  0
LINE
  8
Engraving
 62
   255
 39
0.008
  6
CONTINUOUS
 10
1.03051
 20
8.52055
 30
 0
 11
1.03051
 21
8.52055
  0
LINE
  8
Engraving
 62
   255
 39
0.008
  6
CONTINUOUS
 10
1.05976
 20
8.61307
 30
 0
 11
1.05976
 21
8.49496
  0
LINE
  8
Engraving
 62
   255
 39
0.008
  6
CONTINUOUS
 10
1.05976
 20
8.49496
 30
 0
 11
1.09429
 21
8.49496
  0
ARC
  8
Engraving
 62
   255
 39
0.008
  6
CONTINUOUS
 10
0.13748
 20
7.85209
 30
 0
 40
0.01949
 50
91.50439
 51
-174.78461
  0
ARC
  8
Engraving
 62
   255
 39
0.008
  6
CONTINUOUS
 10
0.13795
 20
7.85102
 30
 0
 40
0.02059
 50
330.44533
 51
92.74196
  0
LINE
  8
Engraving
 62
   255
 39
0.008
  6
CONTINUOUS
 10
0.15587
 20
7.84087
 30
 0
 11
0.11807
 21
7.77709
  0
LINE
  8
Engraving
 62
   255
 39
0.008
  6
CONTINUOUS
 10
0.11807
 20
7.77709
 30
 0
 11
0.15823
 21
7.77709
  0
ARC
  8
Engraving
 62
   255
 39
0.008
  6
CONTINUOUS
 10
0.23386
 20
8.21630
 30
 0
 40
0.01937
 50
434.80614
 51
175.92268
  0
ARC
  8
Engraving
 62
   255
 39
0.008
  6
CONTINUOUS
 10
0.23346
 20
8.21480
 30
 0
 40
0.02091
 50
263.39742
 51
74.83943
  0
ARC
  8
Engraving
 62
   255
 39
0.008
  6
CONTINUOUS
 10
0.23425
 20
8.16846
 30
 0
 40
0.02579
 50
285.86128
 51
97.10332
  0
ARC
  8
Engraving
 62
   255
 39
0.008
  6
CONTINUOUS
 10
0.23480
 20
8.16547
 30
 0
 40
0.02276
 50
185.36509
 51
-73.41468
  0
LINE
  8
Engraving
 62
   255
 39
0.008
  6
CONTINUOUS
 10
0.51390
 20
8.50378
 30
 0
 11
0.48319
 21
8.43291
  0
LINE
  8
Engraving
 62
   255
 39
0.008
  6
CONTINUOUS
 10
0.48319
 20
8.43291
 30
 0
 11
0.52335
 21
8.43291
  0
LINE
  8
Engraving
 62
   255
 39
0.008
  6
CONTINUOUS
 10
0.51390
 20
8.45654
 30
 0
 11
0.51390
 21
8.40929
  0
LINE
  8
Engraving
 62
   255
 39
0.008
  6
CONTINUOUS
 10
0.22543
 20
7.48295
 30
 0
 11
0.24669
 21
7.50657
  0
LINE
  8
Engraving
 62
   255
 39
0.008
  6
CONTINUOUS
 10
0.24669
 20
7.50657
 30
 0
 11
0.24669
 21
7.41209
  0
ARC
  8
Engraving
 62
   255
 39
0.008
  6
CONTINUOUS
 10
0.50327
 20
7.16614
 30
 0
 40
0.02126
 50
180.00000
 51
360.00000
  0
LINE
  8
Engraving
 62
   255
 39
0.008
  6
CONTINUOUS
 10
0.52453
 20
7.16614
 30
 0
 11
0.52453
 21
7.21811
  0
ARC
  8
Engraving
 62
   255
 39
0.008
  6
CONTINUOUS
 10
0.50327
 20
7.21811
 30
 0
 40
0.02126
 50
0.00000
 51
180.00000
  0
LINE
  8
Engraving
 62
   255
 39
0.008
  6
CONTINUOUS
 10
0.48201
 20
7.21811
 30
 0
 11
0.48201
 21
7.16614
  0
LINE
  8
Engraving
 62
   255
 39
0.008
  6
CONTINUOUS
 10
1.18799
 20
7.21575
 30
 0
 11
1.20925
 21
7.23937
  0
LINE
  8
Engraving
 62
   255
 39
0.008
  6
CONTINUOUS
 10
1.20925
 20
7.23937
 30
 0
 11
1.20925
 21
7.14488
  0
ARC
  8
Engraving
 62
   255
 39
0.008
  6
CONTINUOUS
 10
1.25728
 20
7.16614
 30
 0
 40
0.02126
 50
180.00000
 51
360.00000
  0
LINE
  8
Engraving
 62
   255
 39
0.008
  6
CONTINUOUS
 10
1.27854
 20
7.16614
 30
 0
 11
1.27854
 21
7.21811
  0
ARC
  8
Engraving
 62
   255
 39
0.008
  6
CONTINUOUS
 10
1.25728
 20
7.21811
 30
 0
 40
0.02126
 50
0.00000
 51
180.00000
  0
LINE
  8
Engraving
 62
   255
 39
0.008
  6
CONTINUOUS
 10
1.23602
 20
7.21811
 30
 0
 11
1.23602
 21
7.16614
  0
ARC
  8
Engraving
 62
   255
 39
0.008
  6
CONTINUOUS
 10
1.50244
 20
7.43287
 30
 0
 40
0.02087
 50
178.70296
 51
264.59040
  0
ARC
  8
Engraving
 62
   255
 39
0.008
  6
CONTINUOUS
 10
1.49976
 20
7.43169
 30
 0
 40
0.01961
 50
-87.92997
 51
-2.07003
  0
LINE
  8
Engraving
 62
   255
 39
0.008
  6
CONTINUOUS
 10
1.51937
 20
7.43098
 30
 0
 11
1.51937
 21
7.48768
  0
ARC
  8
Engraving
 62
   255
 39
0.008
  6
CONTINUOUS
 10
1.50047
 20
7.48768
 30
 0
 40
0.01890
 50
0.00000
 51
180.00000
  0
LINE
  8
Engraving
 62
   255
 39
0.008
  6
CONTINUOUS
 10
1.48157
 20
7.48768
 30
 0
 11
1.48157
 21
7.47350
  0
ARC
  8
Engraving
 62
   255
 39
0.008
  6
CONTINUOUS
 10
1.50106
 20
7.47575
 30
 0
 40
0.01961
 50
-173.43124
 51
-20.83908
  0
ARC
  8
Engraving
 62
   255
 39
0.008
  6
CONTINUOUS
 10
1.59839
 20
7.79744
 30
 0
 40
0.02035
 50
-90.33247
 51
0.33247
  0
LINE
  8
Engraving
 62
   255
 39
0.008
  6
CONTINUOUS
 10
1.61874
 20
7.79756
 30
 0
 11
1.61874
 21
7.80465
  0
ARC
  8
Engraving
 62
   255
 39
0.008
  6
CONTINUOUS
 10
1.59878
 20
7.80437
 30
 0
 40
0.01996
 50
0.79102
 51
91.46880
  0
ARC
  8
Engraving
 62
   255
 39
0.008
  6
CONTINUOUS
 10
1.59839
 20
7.84311
 30
 0
 40
0.01878
 50
-90.36035
 51
0.36035
  0
LINE
  8
Engraving
 62
   255
 39
0.008
  6
CONTINUOUS
 10
1.61717
 20
7.84323
 30
 0
 11
1.61717
 21
7.85268
  0
ARC
  8
Engraving
 62
   255
 39
0.008
  6
CONTINUOUS
 10
1.59827
 20
7.85268
 30
 0
 40
0.01890
 50
0.00000
 51
180.00000
  0
LINE
  8
Engraving
 62
   255
 39
0.008
  6
CONTINUOUS
 10
1.57937
 20
7.85268
 30
 0
 11
1.57937
 21
7.84323
  0
ARC
  8
Engraving
 62
   255
 39
0.008
  6
CONTINUOUS
 10
1.59815
 20
7.84311
 30
 0
 40
0.01878
 50
179.63965
 51
270.36035
  0
ARC
  8
Engraving
 62
   255
 39
0.008
  6
CONTINUOUS
 10
1.59776
 20
7.80437
 30
 0
 40
0.01996
 50
88.53120
 51
179.20898
  0
LINE
  8
Engraving
 62
   255
 39
0.008
  6
CONTINUOUS
 10
1.57780
 20
7.80465
 30
 0
 11
1.57780
 21
7.79756
  0
ARC
  8
Engraving
 62
   255
 39
0.008
  6
CONTINUOUS
 10
1.59815
 20
7.79744
 30
 0
 40
0.02035
 50
179.66753
 51
270.33247
  0
LINE
  8
Engraving
 62
   255
 39
0.008
  6
CONTINUOUS
 10
1.48039
 20
8.22004
 30
 0
 11
1.48039
 21
8.23657
  0
LINE
  8
Engraving
 62
   255
 39
0.008
  6
CONTINUOUS
 10
1.48039
 20
8.23657
 30
 0
 11
1.52055
 21
8.23657
  0
LINE
  8
Engraving
 62
   255
 39
0.008
  6
CONTINUOUS
 10
1.52055
 20
8.23657
 30
 0
 11
1.48984
 21
8.14209
  0
ARC
  8
Engraving
 62
   255
 39
0.008
  6
CONTINUOUS
 10
1.23252
 20
8.48299
 30
 0
 40
0.02087
 50
-1.29704
 51
84.59040
  0
ARC
  8
Engraving
 62
   255
 39
0.008
  6
CONTINUOUS
 10
1.23272
 20
8.48437
 30
 0
 40
0.01949
 50
84.78461
 51
178.49561
  0
LINE
  8
Engraving
 62
   255
 39
0.008
  6
CONTINUOUS
 10
1.21323
 20
8.48488
 30
 0
 11
1.21323
 21
8.42819
  0
ARC
  8
Engraving
 62
   255
 39
0.008
  6
CONTINUOUS
 10
1.23433
 20
8.43039
 30
 0
 40
0.02122
 50
-174.03551
 51
-95.96449
  0
ARC
  8
Engraving
 62
   255
 39
0.008
  6
CONTINUOUS
 10
1.23260
 20
8.43016
 30
 0
 40
0.02087
 50
-91.29704
 51
-5.40960
  0
LINE
  8
Engraving
 62
   255
 39
0.008
  6
CONTINUOUS
 10
1.25339
 20
8.42819
 30
 0
 11
1.25339
 21
8.44709
  0
ARC
  8
Engraving
 62
   255
 39
0.008
  6
CONTINUOUS
 10
1.23224
 20
8.44469
 30
 0
 40
0.02126
 50
6.48068
 51
153.48242
  0
LINE
  8
Engraving
 62
   255
 39
0.008
  6
CONTINUOUS
 10
0.68059
 20
6.86996
 30
 0
 11
0.68059
 21
6.98807
  0
LINE
  8
Engraving
 62
   255
 39
0.008
  6
CONTINUOUS
 10
0.68059
 20
6.98807
 30
 0
 11
0.70185
 21
6.98807
  0
LINE
  8
Engraving
 62
   255
 39
0.008
  6
CONTINUOUS
 10
0.70185
 20
6.98807
 30
 0
 11
0.70575
 21
6.98780
  0
LINE
  8
Engraving
 62
   255
 39
0.008
  6
CONTINUOUS
 10
0.70575
 20
6.98780
 30
 0
 11
0.70953
 21
6.98685
  0
LINE
  8
Engraving
 62
   255
 39
0.008
  6
CONTINUOUS
 10
0.70953
 20
6.98685
 30
 0
 11
0.71319
 21
6.98531
  0
LINE
  8
Engraving
 62
   255
 39
0.008
  6
CONTINUOUS
 10
0.71319
 20
6.98531
 30
 0
 11
0.71654
 21
6.98323
  0
LINE
  8
Engraving
 62
   255
 39
0.008
  6
CONTINUOUS
 10
0.71654
 20
6.98323
 30
 0
 11
0.71961
 21
6.98059
  0
LINE
  8
Engraving
 62
   255
 39
0.008
  6
CONTINUOUS
 10
0.71961
 20
6.98059
 30
 0
 11
0.72232
 21
6.97752
  0
LINE
  8
Engraving
 62
   255
 39
0.008
  6
CONTINUOUS
 10
0.72232
 20
6.97752
 30
 0
 11
0.72457
 21
6.97398
  0
LINE
  8
Engraving
 62
   255
 39
0.008
  6
CONTINUOUS
 10
0.72457
 20
6.97398
 30
 0
 11
0.72634
 21
6.97016
  0
LINE
  8
Engraving
 62
   255
 39
0.008
  6
CONTINUOUS
 10
0.72634
 20
6.97016
 30
 0
 11
0.72760
 21
6.96606
  0
LINE
  8
Engraving
 62
   255
 39
0.008
  6
CONTINUOUS
 10
0.72760
 20
6.96606
 30
 0
 11
0.72831
 21
6.96185
  0
LINE
  8
Engraving
 62
   255
 39
0.008
  6
CONTINUOUS
 10
0.72831
 20
6.96185
 30
 0
 11
0.72843
 21
6.95854
  0
LINE
  8
Engraving
 62
   255
 39
0.008
  6
CONTINUOUS
 10
0.72843
 20
6.95854
 30
 0
 11
0.72843
 21
6.89949
  0
LINE
  8
Engraving
 62
   255
 39
0.008
  6
CONTINUOUS
 10
0.72843
 20
6.89949
 30
 0
 11
0.72819
 21
6.89520
  0
LINE
  8
Engraving
 62
   255
 39
0.008
  6
CONTINUOUS
 10
0.72819
 20
6.89520
 30
 0
 11
0.72736
 21
6.89098
  0
LINE
  8
Engraving
 62
   255
 39
0.008
  6
CONTINUOUS
 10
0.72736
 20
6.89098
 30
 0
 11
0.72594
 21
6.88693
  0
LINE
  8
Engraving
 62
   255
 39
0.008
  6
CONTINUOUS
 10
0.72594
 20
6.88693
 30
 0
 11
0.72409
 21
6.88319
  0
LINE
  8
Engraving
 62
   255
 39
0.008
  6
CONTINUOUS
 10
0.72409
 20
6.88319
 30
 0
 11
0.72169
 21
6.87976
  0
LINE
  8
Engraving
 62
   255
 39
0.008
  6
CONTINUOUS
 10
0.72169
 20
6.87976
 30
 0
 11
0.71894
 21
6.87677
  0
LINE
  8
Engraving
 62
   255
 39
0.008
  6
CONTINUOUS
 10
0.71894
 20
6.87677
 30
 0
 11
0.71575
 21
6.87425
  0
LINE
  8
Engraving
 62
   255
 39
0.008
  6
CONTINUOUS
 10
0.71575
 20
6.87425
 30
 0
 11
0.71232
 21
6.87228
  0
LINE
  8
Engraving
 62
   255
 39
0.008
  6
CONTINUOUS
 10
0.71232
 20
6.87228
 30
 0
 11
0.70862
 21
6.87091
  0
LINE
  8
Engraving
 62
   255
 39
0.008
  6
CONTINUOUS
 10
0.70862
 20
6.87091
 30
 0
 11
0.70484
 21
6.87012
  0
LINE
  8
Engraving
 62
   255
 39
0.008
  6
CONTINUOUS
 10
0.70484
 20
6.87012
 30
 0
 11
0.70185
 21
6.86996
  0
LINE
  8
Engraving
 62
   255
 39
0.008
  6
CONTINUOUS
 10
0.70185
 20
6.86996
 30
 0
 11
0.68059
 21
6.86996
  0
LINE
  8
Engraving
 62
   255
 39
0.008
  6
CONTINUOUS
 10
0.80638
 20
6.98807
 30
 0
 11
0.75854
 21
6.98807
  0
LINE
  8
Engraving
 62
   255
 39
0.008
  6
CONTINUOUS
 10
0.75854
 20
6.98807
 30
 0
 11
0.75854
 21
6.86996
  0
LINE
  8
Engraving
 62
   255
 39
0.008
  6
CONTINUOUS
 10
0.75854
 20
6.86996
 30
 0
 11
0.80638
 21
6.86996
  0
LINE
  8
Engraving
 62
   255
 39
0.008
  6
CONTINUOUS
 10
0.75854
 20
6.92902
 30
 0
 11
0.79843
 21
6.92902
  0
LINE
  8
Engraving
 62
   255
 39
0.008
  6
CONTINUOUS
 10
0.88260
 20
6.96248
 30
 0
 11
0.88232
 21
6.96630
  0
LINE
  8
Engraving
 62
   255
 39
0.008
  6
CONTINUOUS
 10
0.88232
 20
6.96630
 30
 0
 11
0.88154
 21
6.97004
  0
LINE
  8
Engraving
 62
   255
 39
0.008
  6
CONTINUOUS
 10
0.88154
 20
6.97004
 30
 0
 11
0.88031
 21
6.97358
  0
LINE
  8
Engraving
 62
   255
 39
0.008
  6
CONTINUOUS
 10
0.88031
 20
6.97358
 30
 0
 11
0.87858
 21
6.97689
  0
LINE
  8
Engraving
 62
   255
 39
0.008
  6
CONTINUOUS
 10
0.87858
 20
6.97689
 30
 0
 11
0.87642
 21
6.97988
  0
LINE
  8
Engraving
 62
   255
 39
0.008
  6
CONTINUOUS
 10
0.87642
 20
6.97988
 30
 0
 11
0.87390
 21
6.98248
  0
LINE
  8
Engraving
 62
   255
 39
0.008
  6
CONTINUOUS
 10
0.87390
 20
6.98248
 30
 0
 11
0.87106
 21
6.98465
  0
LINE
  8
Engraving
 62
   255
 39
0.008
  6
CONTINUOUS
 10
0.87106
 20
6.98465
 30
 0
 11
0.86795
 21
6.98630
  0
LINE
  8
Engraving
 62
   255
 39
0.008
  6
CONTINUOUS
 10
0.86795
 20
6.98630
 30
 0
 11
0.86469
 21
6.98744
  0
LINE
  8
Engraving
 62
   255
 39
0.008
  6
CONTINUOUS
 10
0.86469
 20
6.98744
 30
 0
 11
0.86130
 21
6.98799
  0
LINE
  8
Engraving
 62
   255
 39
0.008
  6
CONTINUOUS
 10
0.86130
 20
6.98799
 30
 0
 11
0.85780
 21
6.98799
  0
LINE
  8
Engraving
 62
   255
 39
0.008
  6
CONTINUOUS
 10
0.85780
 20
6.98799
 30
 0
 11
0.85441
 21
6.98744
  0
LINE
  8
Engraving
 62
   255
 39
0.008
  6
CONTINUOUS
 10
0.85441
 20
6.98744
 30
 0
 11
0.85114
 21
6.98630
  0
LINE
  8
Engraving
 62
   255
 39
0.008
  6
CONTINUOUS
 10
0.85114
 20
6.98630
 30
 0
 11
0.84803
 21
6.98465
  0
LINE
  8
Engraving
 62
   255
 39
0.008
  6
CONTINUOUS
 10
0.84803
 20
6.98465
 30
 0
 11
0.84520
 21
6.98248
  0
LINE
  8
Engraving
 62
   255
 39
0.008
  6
CONTINUOUS
 10
0.84520
 20
6.98248
 30
 0
 11
0.84268
 21
6.97988
  0
LINE
  8
Engraving
 62
   255
 39
0.008
  6
CONTINUOUS
 10
0.84268
 20
6.97988
 30
 0
 11
0.84051
 21
6.97689
  0
LINE
  8
Engraving
 62
   255
 39
0.008
  6
CONTINUOUS
 10
0.84051
 20
6.97689
 30
 0
 11
0.83878
 21
6.97358
  0
LINE
  8
Engraving
 62
   255
 39
0.008
  6
CONTINUOUS
 10
0.83878
 20
6.97358
 30
 0
 11
0.83756
 21
6.97004
  0
LINE
  8
Engraving
 62
   255
 39
0.008
  6
CONTINUOUS
 10
0.83756
 20
6.97004
 30
 0
 11
0.83677
 21
6.96630
  0
LINE
  8
Engraving
 62
   255
 39
0.008
  6
CONTINUOUS
 10
0.83677
 20
6.96630
 30
 0
 11
0.83650
 21
6.96248
  0
LINE
  8
Engraving
 62
   255
 39
0.008
  6
CONTINUOUS
 10
0.83650
 20
6.96248
 30
 0
 11
0.83650
 21
6.96248
  0
LINE
  8
Engraving
 62
   255
 39
0.008
  6
CONTINUOUS
 10
0.83650
 20
6.96248
 30
 0
 11
0.83650
 21
6.89555
  0
LINE
  8
Engraving
 62
   255
 39
0.008
  6
CONTINUOUS
 10
0.83650
 20
6.89555
 30
 0
 11
0.83677
 21
6.89173
  0
LINE
  8
Engraving
 62
   255
 39
0.008
  6
CONTINUOUS
 10
0.83677
 20
6.89173
 30
 0
 11
0.83756
 21
6.88799
  0
LINE
  8
Engraving
 62
   255
 39
0.008
  6
CONTINUOUS
 10
0.83756
 20
6.88799
 30
 0
 11
0.83878
 21
6.88445
  0
LINE
  8
Engraving
 62
   255
 39
0.008
  6
CONTINUOUS
 10
0.83878
 20
6.88445
 30
 0
 11
0.84051
 21
6.88114
  0
LINE
  8
Engraving
 62
   255
 39
0.008
  6
CONTINUOUS
 10
0.84051
 20
6.88114
 30
 0
 11
0.84268
 21
6.87815
  0
LINE
  8
Engraving
 62
   255
 39
0.008
  6
CONTINUOUS
 10
0.84268
 20
6.87815
 30
 0
 11
0.84520
 21
6.87555
  0
LINE
  8
Engraving
 62
   255
 39
0.008
  6
CONTINUOUS
 10
0.84520
 20
6.87555
 30
 0
 11
0.84803
 21
6.87339
  0
LINE
  8
Engraving
 62
   255
 39
0.008
  6
CONTINUOUS
 10
0.84803
 20
6.87339
 30
 0
 11
0.85114
 21
6.87173
  0
LINE
  8
Engraving
 62
   255
 39
0.008
  6
CONTINUOUS
 10
0.85114
 20
6.87173
 30
 0
 11
0.85441
 21
6.87059
  0
LINE
  8
Engraving
 62
   255
 39
0.008
  6
CONTINUOUS
 10
0.85441
 20
6.87059
 30
 0
 11
0.85780
 21
6.87004
  0
LINE
  8
Engraving
 62
   255
 39
0.008
  6
CONTINUOUS
 10
0.85780
 20
6.87004
 30
 0
 11
0.86130
 21
6.87004
  0
LINE
  8
Engraving
 62
   255
 39
0.008
  6
CONTINUOUS
 10
0.86130
 20
6.87004
 30
 0
 11
0.86469
 21
6.87059
  0
LINE
  8
Engraving
 62
   255
 39
0.008
  6
CONTINUOUS
 10
0.86469
 20
6.87059
 30
 0
 11
0.86795
 21
6.87173
  0
LINE
  8
Engraving
 62
   255
 39
0.008
  6
CONTINUOUS
 10
0.86795
 20
6.87173
 30
 0
 11
0.87106
 21
6.87339
  0
LINE
  8
Engraving
 62
   255
 39
0.008
  6
CONTINUOUS
 10
0.87106
 20
6.87339
 30
 0
 11
0.87390
 21
6.87555
  0
LINE
  8
Engraving
 62
   255
 39
0.008
  6
CONTINUOUS
 10
0.87390
 20
6.87555
 30
 0
 11
0.87642
 21
6.87815
  0
LINE
  8
Engraving
 62
   255
 39
0.008
  6
CONTINUOUS
 10
0.87642
 20
6.87815
 30
 0
 11
0.87858
 21
6.88114
  0
LINE
  8
Engraving
 62
   255
 39
0.008
  6
CONTINUOUS
 10
0.87858
 20
6.88114
 30
 0
 11
0.88031
 21
6.88445
  0
LINE
  8
Engraving
 62
   255
 39
0.008
  6
CONTINUOUS
 10
0.88031
 20
6.88445
 30
 0
 11
0.88154
 21
6.88799
  0
LINE
  8
Engraving
 62
   255
 39
0.008
  6
CONTINUOUS
 10
0.88154
 20
6.88799
 30
 0
 11
0.88232
 21
6.89173
  0
LINE
  8
Engraving
 62
   255
 39
0.008
  6
CONTINUOUS
 10
0.88232
 20
6.89173
 30
 0
 11
0.88260
 21
6.89555
  0
LINE
  8
Engraving
 62
   255
 39
0.008
  6
CONTINUOUS
 10
0.88260
 20
6.89555
 30
 0
 11
0.88260
 21
6.89555
  0
LINE
  8
Engraving
 62
   255
 39
0.008
  6
CONTINUOUS
 10
0.91272
 20
6.86996
 30
 0
 11
0.94461
 21
6.98807
  0
LINE
  8
Engraving
 62
   255
 39
0.008
  6
CONTINUOUS
 10
0.94461
 20
6.98807
 30
 0
 11
0.97650
 21
6.86996
  0
LINE
  8
Engraving
 62
   255
 39
0.008
  6
CONTINUOUS
 10
0.92335
 20
6.90539
 30
 0
 11
0.96587
 21
6.90539
  0
LINE
  8
Engraving
 62
   255
 39
0.008
  6
CONTINUOUS
 10
1.00661
 20
6.98807
 30
 0
 11
1.03051
 21
6.91425
  0
LINE
  8
Engraving
 62
   255
 39
0.008
  6
CONTINUOUS
 10
1.03051
 20
6.91425
 30
 0
 11
1.03051
 21
6.86996
  0
LINE
  8
Engraving
 62
   255
 39
0.008
  6
CONTINUOUS
 10
1.03051
 20
6.86996
 30
 0
 11
1.03051
 21
6.91425
  0
LINE
  8
Engraving
 62
   255
 39
0.008
  6
CONTINUOUS
 10
1.03051
 20
6.91425
 30
 0
 11
1.05445
 21
6.98807
  0
ARC
  8
Engraving
 62
   255
 39
0.008
  6
CONTINUOUS
 10
0.13748
 20
6.22736
 30
 0
 40
0.01949
 50
91.50439
 51
-174.78461
  0
ARC
  8
Engraving
 62
   255
 39
0.008
  6
CONTINUOUS
 10
0.13795
 20
6.22630
 30
 0
 40
0.02059
 50
330.44533
 51
92.74196
  0
LINE
  8
Engraving
 62
   255
 39
0.008
  6
CONTINUOUS
 10
0.15587
 20
6.21614
 30
 0
 11
0.11807
 21
6.15236
  0
LINE
  8
Engraving
 62
   255
 39
0.008
  6
CONTINUOUS
 10
0.11807
 20
6.15236
 30
 0
 11
0.15823
 21
6.15236
  0
ARC
  8
Engraving
 62
   255
 39
0.008
  6
CONTINUOUS
 10
0.23386
 20
6.59157
 30
 0
 40
0.01937
 50
434.80614
 51
175.92268
  0
ARC
  8
Engraving
 62
   255
 39
0.008
  6
CONTINUOUS
 10
0.23346
 20
6.59008
 30
 0
 40
0.02091
 50
263.39742
 51
74.83943
  0
ARC
  8
Engraving
 62
   255
 39
0.008
  6
CONTINUOUS
 10
0.23425
 20
6.54374
 30
 0
 40
0.02579
 50
285.86128
 51
97.10332
  0
ARC
  8
Engraving
 62
   255
 39
0.008
  6
CONTINUOUS
 10
0.23480
 20
6.54075
 30
 0
 40
0.02276
 50
185.36509
 51
-73.41468
  0
LINE
  8
Engraving
 62
   255
 39
0.008
  6
CONTINUOUS
 10
0.51390
 20
6.87906
 30
 0
 11
0.48319
 21
6.80819
  0
LINE
  8
Engraving
 62
   255
 39
0.008
  6
CONTINUOUS
 10
0.48319
 20
6.80819
 30
 0
 11
0.52335
 21
6.80819
  0
LINE
  8
Engraving
 62
   255
 39
0.008
  6
CONTINUOUS
 10
0.51390
 20
6.83181
 30
 0
 11
0.51390
 21
6.78457
  0
LINE
  8
Engraving
 62
   255
 39
0.008
  6
CONTINUOUS
 10
0.22543
 20
5.85823
 30
 0
 11
0.24669
 21
5.88185
  0
LINE
  8
Engraving
 62
   255
 39
0.008
  6
CONTINUOUS
 10
0.24669
 20
5.88185
 30
 0
 11
0.24669
 21
5.78736
  0
ARC
  8
Engraving
 62
   255
 39
0.008
  6
CONTINUOUS
 10
0.50327
 20
5.54142
 30
 0
 40
0.02126
 50
180.00000
 51
360.00000
  0
LINE
  8
Engraving
 62
   255
 39
0.008
  6
CONTINUOUS
 10
0.52453
 20
5.54142
 30
 0
 11
0.52453
 21
5.59339
  0
ARC
  8
Engraving
 62
   255
 39
0.008
  6
CONTINUOUS
 10
0.50327
 20
5.59339
 30
 0
 40
0.02126
 50
0.00000
 51
180.00000
  0
LINE
  8
Engraving
 62
   255
 39
0.008
  6
CONTINUOUS
 10
0.48201
 20
5.59339
 30
 0
 11
0.48201
 21
5.54142
  0
LINE
  8
Engraving
 62
   255
 39
0.008
  6
CONTINUOUS
 10
1.18799
 20
5.59102
 30
 0
 11
1.20925
 21
5.61465
  0
LINE
  8
Engraving
 62
   255
 39
0.008
  6
CONTINUOUS
 10
1.20925
 20
5.61465
 30
 0
 11
1.20925
 21
5.52016
  0
ARC
  8
Engraving
 62
   255
 39
0.008
  6
CONTINUOUS
 10
1.25728
 20
5.54142
 30
 0
 40
0.02126
 50
180.00000
 51
360.00000
  0
LINE
  8
Engraving
 62
   255
 39
0.008
  6
CONTINUOUS
 10
1.27854
 20
5.54142
 30
 0
 11
1.27854
 21
5.59339
  0
ARC
  8
Engraving
 62
   255
 39
0.008
  6
CONTINUOUS
 10
1.25728
 20
5.59339
 30
 0
 40
0.02126
 50
0.00000
 51
180.00000
  0
LINE
  8
Engraving
 62
   255
 39
0.008
  6
CONTINUOUS
 10
1.23602
 20
5.59339
 30
 0
 11
1.23602
 21
5.54142
  0
ARC
  8
Engraving
 62
   255
 39
0.008
  6
CONTINUOUS
 10
1.50244
 20
5.80815
 30
 0
 40
0.02087
 50
178.70296
 51
264.59040
  0
ARC
  8
Engraving
 62
   255
 39
0.008
  6
CONTINUOUS
 10
1.49976
 20
5.80697
 30
 0
 40
0.01961
 50
-87.92997
 51
-2.07003
  0
LINE
  8
Engraving
 62
   255
 39
0.008
  6
CONTINUOUS
 10
1.51937
 20
5.80626
 30
 0
 11
1.51937
 21
5.86295
  0
ARC
  8
Engraving
 62
   255
 39
0.008
  6
CONTINUOUS
 10
1.50047
 20
5.86295
 30
 0
 40
0.01890
 50
0.00000
 51
180.00000
  0
LINE
  8
Engraving
 62
   255
 39
0.008
  6
CONTINUOUS
 10
1.48157
 20
5.86295
 30
 0
 11
1.48157
 21
5.84878
  0
ARC
  8
Engraving
 62
   255
 39
0.008
  6
CONTINUOUS
 10
1.50106
 20
5.85102
 30
 0
 40
0.01961
 50
-173.43124
 51
-20.83908
  0
ARC
  8
Engraving
 62
   255
 39
0.008
  6
CONTINUOUS
 10
1.59839
 20
6.17272
 30
 0
 40
0.02035
 50
-90.33247
 51
0.33247
  0
LINE
  8
Engraving
 62
   255
 39
0.008
  6
CONTINUOUS
 10
1.61874
 20
6.17283
 30
 0
 11
1.61874
 21
6.17992
  0
ARC
  8
Engraving
 62
   255
 39
0.008
  6
CONTINUOUS
 10
1.59878
 20
6.17965
 30
 0
 40
0.01996
 50
0.79102
 51
91.46880
  0
ARC
  8
Engraving
 62
   255
 39
0.008
  6
CONTINUOUS
 10
1.59839
 20
6.21839
 30
 0
 40
0.01878
 50
-90.36035
 51
0.36035
  0
LINE
  8
Engraving
 62
   255
 39
0.008
  6
CONTINUOUS
 10
1.61717
 20
6.21850
 30
 0
 11
1.61717
 21
6.22795
  0
ARC
  8
Engraving
 62
   255
 39
0.008
  6
CONTINUOUS
 10
1.59827
 20
6.22795
 30
 0
 40
0.01890
 50
0.00000
 51
180.00000
  0
LINE
  8
Engraving
 62
   255
 39
0.008
  6
CONTINUOUS
 10
1.57937
 20
6.22795
 30
 0
 11
1.57937
 21
6.21850
  0
ARC
  8
Engraving
 62
   255
 39
0.008
  6
CONTINUOUS
 10
1.59815
 20
6.21839
 30
 0
 40
0.01878
 50
179.63965
 51
270.36035
  0
ARC
  8
Engraving
 62
   255
 39
0.008
  6
CONTINUOUS
 10
1.59776
 20
6.17965
 30
 0
 40
0.01996
 50
88.53120
 51
179.20898
  0
LINE
  8
Engraving
 62
   255
 39
0.008
  6
CONTINUOUS
 10
1.57780
 20
6.17992
 30
 0
 11
1.57780
 21
6.17283
  0
ARC
  8
Engraving
 62
   255
 39
0.008
  6
CONTINUOUS
 10
1.59815
 20
6.17272
 30
 0
 40
0.02035
 50
179.66753
 51
270.33247
  0
LINE
  8
Engraving
 62
   255
 39
0.008
  6
CONTINUOUS
 10
1.48039
 20
6.59531
 30
 0
 11
1.48039
 21
6.61185
  0
LINE
  8
Engraving
 62
   255
 39
0.008
  6
CONTINUOUS
 10
1.48039
 20
6.61185
 30
 0
 11
1.52055
 21
6.61185
  0
LINE
  8
Engraving
 62
   255
 39
0.008
  6
CONTINUOUS
 10
1.52055
 20
6.61185
 30
 0
 11
1.48984
 21
6.51736
  0
ARC
  8
Engraving
 62
   255
 39
0.008
  6
CONTINUOUS
 10
1.23252
 20
6.85827
 30
 0
 40
0.02087
 50
-1.29704
 51
84.59040
  0
ARC
  8
Engraving
 62
   255
 39
0.008
  6
CONTINUOUS
 10
1.23272
 20
6.85965
 30
 0
 40
0.01949
 50
84.78461
 51
178.49561
  0
LINE
  8
Engraving
 62
   255
 39
0.008
  6
CONTINUOUS
 10
1.21323
 20
6.86016
 30
 0
 11
1.21323
 21
6.80346
  0
ARC
  8
Engraving
 62
   255
 39
0.008
  6
CONTINUOUS
 10
1.23433
 20
6.80567
 30
 0
 40
0.02122
 50
-174.03551
 51
-95.96449
  0
ARC
  8
Engraving
 62
   255
 39
0.008
  6
CONTINUOUS
 10
1.23260
 20
6.80543
 30
 0
 40
0.02087
 50
-91.29704
 51
-5.40960
  0
LINE
  8
Engraving
 62
   255
 39
0.008
  6
CONTINUOUS
 10
1.25339
 20
6.80346
 30
 0
 11
1.25339
 21
6.82236
  0
ARC
  8
Engraving
 62
   255
 39
0.008
  6
CONTINUOUS
 10
1.23224
 20
6.81996
 30
 0
 40
0.02126
 50
6.48068
 51
153.48242
  0
LINE
  8
Engraving
 62
   255
 39
0.008
  6
CONTINUOUS
 10
0.81835
 20
6.20512
 30
 0
 11
0.91677
 21
6.20512
  0
LINE
  8
Engraving
 62
   255
 39
0.008
  6
CONTINUOUS
 10
0.86756
 20
6.25433
 30
 0
 11
0.86756
 21
6.15591
  0
LINE
  8
Engraving
 62
   255
 39
0.008
  6
CONTINUOUS
 10
1.29906
 20
5.77358
 30
 0
 11
1.07634
 21
5.99630
  0
LINE
  8
Engraving
 62
   255
 39
0.008
  6
CONTINUOUS
 10
1.07634
 20
5.99630
 30
 0
 11
1.07634
 21
5.99630
  0
LINE
  8
Engraving
 62
   255
 39
0.008
  6
CONTINUOUS
 10
1.15276
 20
6.12870
 30
 0
 11
1.15276
 21
6.12870
  0
LINE
  8
Engraving
 62
   255
 39
0.008
  6
CONTINUOUS
 10
1.15276
 20
6.12870
 30
 0
 11
1.45701
 21
6.04717
  0
LINE
  8
Engraving
 62
   255
 39
0.008
  6
CONTINUOUS
 10
1.45701
 20
6.36303
 30
 0
 11
1.15276
 21
6.28150
  0
LINE
  8
Engraving
 62
   255
 39
0.008
  6
CONTINUOUS
 10
1.15276
 20
6.28150
 30
 0
 11
1.15276
 21
6.28150
  0
LINE
  8
Engraving
 62
   255
 39
0.008
  6
CONTINUOUS
 10
1.07634
 20
6.41390
 30
 0
 11
1.07634
 21
6.41390
  0
LINE
  8
Engraving
 62
   255
 39
0.008
  6
CONTINUOUS
 10
1.07634
 20
6.41390
 30
 0
 11
1.29906
 21
6.63661
  0
LINE
  8
Engraving
 62
   255
 39
0.008
  6
CONTINUOUS
 10
1.02547
 20
6.79457
 30
 0
 11
0.94394
 21
6.49031
  0
LINE
  8
Engraving
 62
   255
 39
0.008
  6
CONTINUOUS
 10
0.94394
 20
6.49031
 30
 0
 11
0.94394
 21
6.49031
  0
LINE
  8
Engraving
 62
   255
 39
0.008
  6
CONTINUOUS
 10
0.79114
 20
6.49031
 30
 0
 11
0.79114
 21
6.49031
  0
LINE
  8
Engraving
 62
   255
 39
0.008
  6
CONTINUOUS
 10
0.79114
 20
6.49031
 30
 0
 11
0.70961
 21
6.79457
  0
LINE
  8
Engraving
 62
   255
 39
0.008
  6
CONTINUOUS
 10
0.43602
 20
6.63661
 30
 0
 11
0.65874
 21
6.41390
  0
LINE
  8
Engraving
 62
   255
 39
0.008
  6
CONTINUOUS
 10
0.65874
 20
6.41390
 30
 0
 11
0.65874
 21
6.41390
  0
LINE
  8
Engraving
 62
   255
 39
0.008
  6
CONTINUOUS
 10
0.58232
 20
6.28150
 30
 0
 11
0.58232
 21
6.28150
  0
LINE
  8
Engraving
 62
   255
 39
0.008
  6
CONTINUOUS
 10
0.58232
 20
6.28150
 30
 0
 11
0.27807
 21
6.36303
  0
LINE
  8
Engraving
 62
   255
 39
0.008
  6
CONTINUOUS
 10
0.27807
 20
6.04717
 30
 0
 11
0.58232
 21
6.12870
  0
LINE
  8
Engraving
 62
   255
 39
0.008
  6
CONTINUOUS
 10
0.58232
 20
6.12870
 30
 0
 11
0.58232
 21
6.12870
  0
LINE
  8
Engraving
 62
   255
 39
0.008
  6
CONTINUOUS
 10
0.65874
 20
5.99630
 30
 0
 11
0.65874
 21
5.99630
  0
LINE
  8
Engraving
 62
   255
 39
0.008
  6
CONTINUOUS
 10
0.65874
 20
5.99630
 30
 0
 11
0.43602
 21
5.77358
  0
LINE
  8
Engraving
 62
   255
 39
0.016
  6
CONTINUOUS
 10
0.81831
 20
6.20181
 30
 0
 11
0.91673
 21
6.20181
  0
LINE
  8
Engraving
 62
   255
 39
0.016
  6
CONTINUOUS
 10
0.86752
 20
6.25102
 30
 0
 11
0.86752
 21
6.15260
  0
LINE
  8
Engraving
 62
   255
 39
0.016
  6
CONTINUOUS
 10
0.55256
 20
5.65630
 30
 0
 11
0.71984
 21
5.94606
  0
LINE
  8
Engraving
 62
   255
 39
0.016
  6
CONTINUOUS
 10
0.71984
 20
5.94606
 30
 0
 11
0.71988
 21
5.94606
  0
LINE
  8
Engraving
 62
   255
 39
0.016
  6
CONTINUOUS
 10
1.18248
 20
5.65630
 30
 0
 11
1.01516
 21
5.94606
  0
LINE
  8
Engraving
 62
   255
 39
0.016
  6
CONTINUOUS
 10
1.01516
 20
5.94606
 30
 0
 11
1.01516
 21
5.94606
  0
LINE
  8
Engraving
 62
   255
 39
0.016
  6
CONTINUOUS
 10
1.12323
 20
6.05413
 30
 0
 11
1.12323
 21
6.05413
  0
LINE
  8
Engraving
 62
   255
 39
0.016
  6
CONTINUOUS
 10
1.12323
 20
6.05413
 30
 0
 11
1.41303
 21
5.88681
  0
LINE
  8
Engraving
 62
   255
 39
0.016
  6
CONTINUOUS
 10
1.49744
 20
6.20181
 30
 0
 11
1.16280
 21
6.20181
  0
LINE
  8
Engraving
 62
   255
 39
0.016
  6
CONTINUOUS
 10
1.16280
 20
6.20181
 30
 0
 11
1.16280
 21
6.20181
  0
LINE
  8
Engraving
 62
   255
 39
0.016
  6
CONTINUOUS
 10
1.12323
 20
6.34945
 30
 0
 11
1.12323
 21
6.34945
  0
LINE
  8
Engraving
 62
   255
 39
0.016
  6
CONTINUOUS
 10
1.12323
 20
6.34945
 30
 0
 11
1.41303
 21
6.51677
  0
LINE
  8
Engraving
 62
   255
 39
0.016
  6
CONTINUOUS
 10
1.18244
 20
6.74732
 30
 0
 11
1.01516
 21
6.45752
  0
LINE
  8
Engraving
 62
   255
 39
0.016
  6
CONTINUOUS
 10
1.01516
 20
6.45752
 30
 0
 11
1.01512
 21
6.45752
  0
LINE
  8
Engraving
 62
   255
 39
0.016
  6
CONTINUOUS
 10
0.86752
 20
6.49709
 30
 0
 11
0.86752
 21
6.49709
  0
LINE
  8
Engraving
 62
   255
 39
0.016
  6
CONTINUOUS
 10
0.86752
 20
6.49709
 30
 0
 11
0.86752
 21
6.83173
  0
LINE
  8
Engraving
 62
   255
 39
0.016
  6
CONTINUOUS
 10
0.55256
 20
6.74732
 30
 0
 11
0.71988
 21
6.45752
  0
LINE
  8
Engraving
 62
   255
 39
0.016
  6
CONTINUOUS
 10
0.71988
 20
6.45752
 30
 0
 11
0.71988
 21
6.45752
  0
LINE
  8
Engraving
 62
   255
 39
0.016
  6
CONTINUOUS
 10
0.61177
 20
6.34945
 30
 0
 11
0.61177
 21
6.34945
  0
LINE
  8
Engraving
 62
   255
 39
0.016
  6
CONTINUOUS
 10
0.61177
 20
6.34945
 30
 0
 11
0.32201
 21
6.51673
  0
LINE
  8
Engraving
 62
   255
 39
0.016
  6
CONTINUOUS
 10
0.23760
 20
6.20181
 30
 0
 11
0.57224
 21
6.20181
  0
LINE
  8
Engraving
 62
   255
 39
0.016
  6
CONTINUOUS
 10
0.57224
 20
6.20181
 30
 0
 11
0.57224
 21
6.20181
  0
LINE
  8
Engraving
 62
   255
 39
0.016
  6
CONTINUOUS
 10
0.61177
 20
6.05417
 30
 0
 11
0.61177
 21
6.05417
  0
LINE
  8
Engraving
 62
   255
 39
0.016
  6
CONTINUOUS
 10
0.61177
 20
6.05417
 30
 0
 11
0.32201
 21
5.88685
  0
ARC
  8
Engraving
 62
   255
 39
0.008
  6
CONTINUOUS
 10
0.29126
 20
2.33248
 30
 0
 40
0.02657
 50
0.00000
 51
180.00000
  0
LINE
  8
Engraving
 62
   255
 39
0.008
  6
CONTINUOUS
 10
0.26469
 20
2.33248
 30
 0
 11
0.26469
 21
2.26752
  0
ARC
  8
Engraving
 62
   255
 39
0.008
  6
CONTINUOUS
 10
0.29126
 20
2.26752
 30
 0
 40
0.02657
 50
180.00000
 51
360.00000
  0
LINE
  8
Engraving
 62
   255
 39
0.008
  6
CONTINUOUS
 10
0.31783
 20
2.26752
 30
 0
 11
0.31783
 21
2.29705
  0
LINE
  8
Engraving
 62
   255
 39
0.008
  6
CONTINUOUS
 10
0.31783
 20
2.29705
 30
 0
 11
0.29126
 21
2.29705
  0
LINE
  8
Engraving
 62
   255
 39
0.008
  6
CONTINUOUS
 10
0.35130
 20
2.24094
 30
 0
 11
0.38673
 21
2.35906
  0
LINE
  8
Engraving
 62
   255
 39
0.008
  6
CONTINUOUS
 10
0.38673
 20
2.35906
 30
 0
 11
0.42217
 21
2.24094
  0
LINE
  8
Engraving
 62
   255
 39
0.008
  6
CONTINUOUS
 10
0.36311
 20
2.27638
 30
 0
 11
0.41035
 21
2.27638
  0
LINE
  8
Engraving
 62
   255
 39
0.008
  6
CONTINUOUS
 10
0.45563
 20
2.35906
 30
 0
 11
0.50878
 21
2.35906
  0
LINE
  8
Engraving
 62
   255
 39
0.008
  6
CONTINUOUS
 10
0.50878
 20
2.35906
 30
 0
 11
0.48220
 21
2.35906
  0
LINE
  8
Engraving
 62
   255
 39
0.008
  6
CONTINUOUS
 10
0.48220
 20
2.35906
 30
 0
 11
0.48220
 21
2.24094
  0
LINE
  8
Engraving
 62
   255
 39
0.008
  6
CONTINUOUS
 10
0.59539
 20
2.35906
 30
 0
 11
0.54224
 21
2.35906
  0
LINE
  8
Engraving
 62
   255
 39
0.008
  6
CONTINUOUS
 10
0.54224
 20
2.35906
 30
 0
 11
0.54224
 21
2.24094
  0
LINE
  8
Engraving
 62
   255
 39
0.008
  6
CONTINUOUS
 10
0.54224
 20
2.24094
 30
 0
 11
0.59539
 21
2.24094
  0
LINE
  8
Engraving
 62
   255
 39
0.008
  6
CONTINUOUS
 10
0.54224
 20
2.30000
 30
 0
 11
0.58654
 21
2.30000
  0
LINE
  8
Engraving
 62
   255
 39
0.008
  6
CONTINUOUS
 10
1.26169
 20
2.35906
 30
 0
 11
1.26169
 21
2.24094
  0
LINE
  8
Engraving
 62
   255
 39
0.008
  6
CONTINUOUS
 10
1.29516
 20
2.24094
 30
 0
 11
1.29516
 21
2.35906
  0
LINE
  8
Engraving
 62
   255
 39
0.008
  6
CONTINUOUS
 10
1.29516
 20
2.35906
 30
 0
 11
1.34831
 21
2.24094
  0
LINE
  8
Engraving
 62
   255
 39
0.008
  6
CONTINUOUS
 10
1.34831
 20
2.24094
 30
 0
 11
1.34831
 21
2.35906
  0
LINE
  8
Engraving
 62
   255
 39
0.008
  6
CONTINUOUS
 10
0.81835
 20
7.83004
 30
 0
 11
0.91677
 21
7.83004
  0
LINE
  8
Engraving
 62
   255
 39
0.008
  6
CONTINUOUS
 10
0.86756
 20
7.87925
 30
 0
 11
0.86756
 21
7.78083
  0
LINE
  8
Engraving
 62
   255
 39
0.008
  6
CONTINUOUS
 10
1.29906
 20
7.39850
 30
 0
 11
1.07634
 21
7.62122
  0
LINE
  8
Engraving
 62
   255
 39
0.008
  6
CONTINUOUS
 10
1.07634
 20
7.62122
 30
 0
 11
1.07634
 21
7.62122
  0
LINE
  8
Engraving
 62
   255
 39
0.008
  6
CONTINUOUS
 10
1.15276
 20
7.75362
 30
 0
 11
1.15276
 21
7.75362
  0
LINE
  8
Engraving
 62
   255
 39
0.008
  6
CONTINUOUS
 10
1.15276
 20
7.75362
 30
 0
 11
1.45701
 21
7.67209
  0
LINE
  8
Engraving
 62
   255
 39
0.008
  6
CONTINUOUS
 10
1.45701
 20
7.98795
 30
 0
 11
1.15276
 21
7.90642
  0
LINE
  8
Engraving
 62
   255
 39
0.008
  6
CONTINUOUS
 10
1.15276
 20
7.90642
 30
 0
 11
1.15276
 21
7.90642
  0
LINE
  8
Engraving
 62
   255
 39
0.008
  6
CONTINUOUS
 10
1.07634
 20
8.03882
 30
 0
 11
1.07634
 21
8.03882
  0
LINE
  8
Engraving
 62
   255
 39
0.008
  6
CONTINUOUS
 10
1.07634
 20
8.03882
 30
 0
 11
1.29906
 21
8.26154
  0
LINE
  8
Engraving
 62
   255
 39
0.008
  6
CONTINUOUS
 10
1.02547
 20
8.41949
 30
 0
 11
0.94394
 21
8.11524
  0
LINE
  8
Engraving
 62
   255
 39
0.008
  6
CONTINUOUS
 10
0.94394
 20
8.11524
 30
 0
 11
0.94394
 21
8.11524
  0
LINE
  8
Engraving
 62
   255
 39
0.008
  6
CONTINUOUS
 10
0.79114
 20
8.11524
 30
 0
 11
0.79114
 21
8.11524
  0
LINE
  8
Engraving
 62
   255
 39
0.008
  6
CONTINUOUS
 10
0.79114
 20
8.11524
 30
 0
 11
0.70961
 21
8.41949
  0
LINE
  8
Engraving
 62
   255
 39
0.008
  6
CONTINUOUS
 10
0.43602
 20
8.26154
 30
 0
 11
0.65874
 21
8.03882
  0
LINE
  8
Engraving
 62
   255
 39
0.008
  6
CONTINUOUS
 10
0.65874
 20
8.03882
 30
 0
 11
0.65874
 21
8.03882
  0
LINE
  8
Engraving
 62
   255
 39
0.008
  6
CONTINUOUS
 10
0.58232
 20
7.90642
 30
 0
 11
0.58232
 21
7.90642
  0
LINE
  8
Engraving
 62
   255
 39
0.008
  6
CONTINUOUS
 10
0.58232
 20
7.90642
 30
 0
 11
0.27807
 21
7.98795
  0
LINE
  8
Engraving
 62
   255
 39
0.008
  6
CONTINUOUS
 10
0.27807
 20
7.67209
 30
 0
 11
0.58232
 21
7.75362
  0
LINE
  8
Engraving
 62
   255
 39
0.008
  6
CONTINUOUS
 10
0.58232
 20
7.75362
 30
 0
 11
0.58232
 21
7.75362
  0
LINE
  8
Engraving
 62
   255
 39
0.008
  6
CONTINUOUS
 10
0.65874
 20
7.62122
 30
 0
 11
0.65874
 21
7.62122
  0
LINE
  8
Engraving
 62
   255
 39
0.008
  6
CONTINUOUS
 10
0.65874
 20
7.62122
 30
 0
 11
0.43602
 21
7.39850
  0
LINE
  8
Engraving
 62
   255
 39
0.016
  6
CONTINUOUS
 10
0.81831
 20
7.82681
 30
 0
 11
0.91673
 21
7.82681
  0
LINE
  8
Engraving
 62
   255
 39
0.016
  6
CONTINUOUS
 10
0.86752
 20
7.87602
 30
 0
 11
0.86752
 21
7.77760
  0
LINE
  8
Engraving
 62
   255
 39
0.016
  6
CONTINUOUS
 10
0.55256
 20
7.28130
 30
 0
 11
0.71984
 21
7.57106
  0
LINE
  8
Engraving
 62
   255
 39
0.016
  6
CONTINUOUS
 10
0.71984
 20
7.57106
 30
 0
 11
0.71988
 21
7.57106
  0
LINE
  8
Engraving
 62
   255
 39
0.016
  6
CONTINUOUS
 10
1.18248
 20
7.28130
 30
 0
 11
1.01516
 21
7.57106
  0
LINE
  8
Engraving
 62
   255
 39
0.016
  6
CONTINUOUS
 10
1.01516
 20
7.57106
 30
 0
 11
1.01516
 21
7.57106
  0
LINE
  8
Engraving
 62
   255
 39
0.016
  6
CONTINUOUS
 10
1.12323
 20
7.67913
 30
 0
 11
1.12323
 21
7.67913
  0
LINE
  8
Engraving
 62
   255
 39
0.016
  6
CONTINUOUS
 10
1.12323
 20
7.67913
 30
 0
 11
1.41303
 21
7.51181
  0
LINE
  8
Engraving
 62
   255
 39
0.016
  6
CONTINUOUS
 10
1.49744
 20
7.82681
 30
 0
 11
1.16280
 21
7.82681
  0
LINE
  8
Engraving
 62
   255
 39
0.016
  6
CONTINUOUS
 10
1.16280
 20
7.82681
 30
 0
 11
1.16280
 21
7.82681
  0
LINE
  8
Engraving
 62
   255
 39
0.016
  6
CONTINUOUS
 10
1.12323
 20
7.97445
 30
 0
 11
1.12323
 21
7.97445
  0
LINE
  8
Engraving
 62
   255
 39
0.016
  6
CONTINUOUS
 10
1.12323
 20
7.97445
 30
 0
 11
1.41303
 21
8.14177
  0
LINE
  8
Engraving
 62
   255
 39
0.016
  6
CONTINUOUS
 10
1.18244
 20
8.37232
 30
 0
 11
1.01516
 21
8.08252
  0
LINE
  8
Engraving
 62
   255
 39
0.016
  6
CONTINUOUS
 10
1.01516
 20
8.08252
 30
 0
 11
1.01512
 21
8.08252
  0
LINE
  8
Engraving
 62
   255
 39
0.016
  6
CONTINUOUS
 10
0.86752
 20
8.12209
 30
 0
 11
0.86752
 21
8.12209
  0
LINE
  8
Engraving
 62
   255
 39
0.016
  6
CONTINUOUS
 10
0.86752
 20
8.12209
 30
 0
 11
0.86752
 21
8.45673
  0
LINE
  8
Engraving
 62
   255
 39
0.016
  6
CONTINUOUS
 10
0.55256
 20
8.37232
 30
 0
 11
0.71988
 21
8.08252
  0
LINE
  8
Engraving
 62
   255
 39
0.016
  6
CONTINUOUS
 10
0.71988
 20
8.08252
 30
 0
 11
0.71988
 21
8.08252
  0
LINE
  8
Engraving
 62
   255
 39
0.016
  6
CONTINUOUS
 10
0.61177
 20
7.97445
 30
 0
 11
0.61177
 21
7.97445
  0
LINE
  8
Engraving
 62
   255
 39
0.016
  6
CONTINUOUS
 10
0.61177
 20
7.97445
 30
 0
 11
0.32201
 21
8.14173
  0
LINE
  8
Engraving
 62
   255
 39
0.016
  6
CONTINUOUS
 10
0.23760
 20
7.82681
 30
 0
 11
0.57224
 21
7.82681
  0
LINE
  8
Engraving
 62
   255
 39
0.016
  6
CONTINUOUS
 10
0.57224
 20
7.82681
 30
 0
 11
0.57224
 21
7.82681
  0
LINE
  8
Engraving
 62
   255
 39
0.016
  6
CONTINUOUS
 10
0.61177
 20
7.67917
 30
 0
 11
0.61177
 21
7.67917
  0
LINE
  8
Engraving
 62
   255
 39
0.016
  6
CONTINUOUS
 10
0.61177
 20
7.67917
 30
 0
 11
0.32201
 21
7.51185
  0
LINE
  8
Engraving
 62
   255
 39
0.008
  6
CONTINUOUS
 10
0.28575
 20
4.03488
 30
 0
 11
0.31252
 21
4.13409
  0
LINE
  8
Engraving
 62
   255
 39
0.008
  6
CONTINUOUS
 10
0.31252
 20
4.13409
 30
 0
 11
0.33929
 21
4.03488
  0
LINE
  8
Engraving
 62
   255
 39
0.008
  6
CONTINUOUS
 10
0.29465
 20
4.06465
 30
 0
 11
0.33039
 21
4.06465
  0
LINE
  8
Engraving
 62
   255
 39
0.008
  6
CONTINUOUS
 10
0.29157
 20
3.49409
 30
 0
 11
0.29157
 21
3.39488
  0
LINE
  8
Engraving
 62
   255
 39
0.008
  6
CONTINUOUS
 10
0.29157
 20
3.39488
 30
 0
 11
0.31165
 21
3.39488
  0
LINE
  8
Engraving
 62
   255
 39
0.008
  6
CONTINUOUS
 10
0.31165
 20
3.39488
 30
 0
 11
0.31496
 21
3.39528
  0
LINE
  8
Engraving
 62
   255
 39
0.008
  6
CONTINUOUS
 10
0.31496
 20
3.39528
 30
 0
 11
0.31815
 21
3.39622
  0
LINE
  8
Engraving
 62
   255
 39
0.008
  6
CONTINUOUS
 10
0.31815
 20
3.39622
 30
 0
 11
0.32122
 21
3.39768
  0
LINE
  8
Engraving
 62
   255
 39
0.008
  6
CONTINUOUS
 10
0.32122
 20
3.39768
 30
 0
 11
0.32406
 21
3.39961
  0
LINE
  8
Engraving
 62
   255
 39
0.008
  6
CONTINUOUS
 10
0.32406
 20
3.39961
 30
 0
 11
0.32657
 21
3.40197
  0
LINE
  8
Engraving
 62
   255
 39
0.008
  6
CONTINUOUS
 10
0.32657
 20
3.40197
 30
 0
 11
0.32878
 21
3.40469
  0
LINE
  8
Engraving
 62
   255
 39
0.008
  6
CONTINUOUS
 10
0.32878
 20
3.40469
 30
 0
 11
0.33063
 21
3.40776
  0
LINE
  8
Engraving
 62
   255
 39
0.008
  6
CONTINUOUS
 10
0.33063
 20
3.40776
 30
 0
 11
0.33201
 21
3.41110
  0
LINE
  8
Engraving
 62
   255
 39
0.008
  6
CONTINUOUS
 10
0.33201
 20
3.41110
 30
 0
 11
0.33295
 21
3.41465
  0
LINE
  8
Engraving
 62
   255
 39
0.008
  6
CONTINUOUS
 10
0.33295
 20
3.41465
 30
 0
 11
0.33346
 21
3.41827
  0
LINE
  8
Engraving
 62
   255
 39
0.008
  6
CONTINUOUS
 10
0.33346
 20
3.41827
 30
 0
 11
0.33346
 21
3.42197
  0
LINE
  8
Engraving
 62
   255
 39
0.008
  6
CONTINUOUS
 10
0.33346
 20
3.42197
 30
 0
 11
0.33295
 21
3.42559
  0
LINE
  8
Engraving
 62
   255
 39
0.008
  6
CONTINUOUS
 10
0.33295
 20
3.42559
 30
 0
 11
0.33201
 21
3.42913
  0
LINE
  8
Engraving
 62
   255
 39
0.008
  6
CONTINUOUS
 10
0.33201
 20
3.42913
 30
 0
 11
0.33063
 21
3.43244
  0
LINE
  8
Engraving
 62
   255
 39
0.008
  6
CONTINUOUS
 10
0.33063
 20
3.43244
 30
 0
 11
0.32878
 21
3.43555
  0
LINE
  8
Engraving
 62
   255
 39
0.008
  6
CONTINUOUS
 10
0.32878
 20
3.43555
 30
 0
 11
0.32657
 21
3.43827
  0
LINE
  8
Engraving
 62
   255
 39
0.008
  6
CONTINUOUS
 10
0.32657
 20
3.43827
 30
 0
 11
0.32406
 21
3.44063
  0
LINE
  8
Engraving
 62
   255
 39
0.008
  6
CONTINUOUS
 10
0.32406
 20
3.44063
 30
 0
 11
0.32122
 21
3.44256
  0
LINE
  8
Engraving
 62
   255
 39
0.008
  6
CONTINUOUS
 10
0.32122
 20
3.44256
 30
 0
 11
0.31815
 21
3.44402
  0
LINE
  8
Engraving
 62
   255
 39
0.008
  6
CONTINUOUS
 10
0.31815
 20
3.44402
 30
 0
 11
0.31496
 21
3.44496
  0
LINE
  8
Engraving
 62
   255
 39
0.008
  6
CONTINUOUS
 10
0.31496
 20
3.44496
 30
 0
 11
0.31165
 21
3.44535
  0
LINE
  8
Engraving
 62
   255
 39
0.008
  6
CONTINUOUS
 10
0.31165
 20
3.44535
 30
 0
 11
0.31165
 21
3.44531
  0
LINE
  8
Engraving
 62
   255
 39
0.008
  6
CONTINUOUS
 10
0.31165
 20
3.44531
 30
 0
 11
0.29157
 21
3.44531
  0
LINE
  8
Engraving
 62
   255
 39
0.008
  6
CONTINUOUS
 10
0.29157
 20
3.44531
 30
 0
 11
0.31165
 21
3.44531
  0
LINE
  8
Engraving
 62
   255
 39
0.008
  6
CONTINUOUS
 10
0.31165
 20
3.44531
 30
 0
 11
0.31488
 21
3.44579
  0
LINE
  8
Engraving
 62
   255
 39
0.008
  6
CONTINUOUS
 10
0.31488
 20
3.44579
 30
 0
 11
0.31803
 21
3.44677
  0
LINE
  8
Engraving
 62
   255
 39
0.008
  6
CONTINUOUS
 10
0.31803
 20
3.44677
 30
 0
 11
0.32094
 21
3.44823
  0
LINE
  8
Engraving
 62
   255
 39
0.008
  6
CONTINUOUS
 10
0.32094
 20
3.44823
 30
 0
 11
0.32370
 21
3.45020
  0
LINE
  8
Engraving
 62
   255
 39
0.008
  6
CONTINUOUS
 10
0.32370
 20
3.45020
 30
 0
 11
0.32614
 21
3.45256
  0
LINE
  8
Engraving
 62
   255
 39
0.008
  6
CONTINUOUS
 10
0.32614
 20
3.45256
 30
 0
 11
0.32823
 21
3.45531
  0
LINE
  8
Engraving
 62
   255
 39
0.008
  6
CONTINUOUS
 10
0.32823
 20
3.45531
 30
 0
 11
0.32992
 21
3.45835
  0
LINE
  8
Engraving
 62
   255
 39
0.008
  6
CONTINUOUS
 10
0.32992
 20
3.45835
 30
 0
 11
0.33118
 21
3.46165
  0
LINE
  8
Engraving
 62
   255
 39
0.008
  6
CONTINUOUS
 10
0.33118
 20
3.46165
 30
 0
 11
0.33205
 21
3.46512
  0
LINE
  8
Engraving
 62
   255
 39
0.008
  6
CONTINUOUS
 10
0.33205
 20
3.46512
 30
 0
 11
0.33240
 21
3.46870
  0
LINE
  8
Engraving
 62
   255
 39
0.008
  6
CONTINUOUS
 10
0.33240
 20
3.46870
 30
 0
 11
0.33228
 21
3.47232
  0
LINE
  8
Engraving
 62
   255
 39
0.008
  6
CONTINUOUS
 10
0.33228
 20
3.47232
 30
 0
 11
0.33173
 21
3.47587
  0
LINE
  8
Engraving
 62
   255
 39
0.008
  6
CONTINUOUS
 10
0.33173
 20
3.47587
 30
 0
 11
0.33067
 21
3.47925
  0
LINE
  8
Engraving
 62
   255
 39
0.008
  6
CONTINUOUS
 10
0.33067
 20
3.47925
 30
 0
 11
0.32917
 21
3.48244
  0
LINE
  8
Engraving
 62
   255
 39
0.008
  6
CONTINUOUS
 10
0.32917
 20
3.48244
 30
 0
 11
0.32728
 21
3.48535
  0
LINE
  8
Engraving
 62
   255
 39
0.008
  6
CONTINUOUS
 10
0.32728
 20
3.48535
 30
 0
 11
0.32504
 21
3.48795
  0
LINE
  8
Engraving
 62
   255
 39
0.008
  6
CONTINUOUS
 10
0.32504
 20
3.48795
 30
 0
 11
0.32244
 21
3.49012
  0
LINE
  8
Engraving
 62
   255
 39
0.008
  6
CONTINUOUS
 10
0.32244
 20
3.49012
 30
 0
 11
0.31961
 21
3.49189
  0
LINE
  8
Engraving
 62
   255
 39
0.008
  6
CONTINUOUS
 10
0.31961
 20
3.49189
 30
 0
 11
0.31661
 21
3.49311
  0
LINE
  8
Engraving
 62
   255
 39
0.008
  6
CONTINUOUS
 10
0.31661
 20
3.49311
 30
 0
 11
0.31343
 21
3.49386
  0
LINE
  8
Engraving
 62
   255
 39
0.008
  6
CONTINUOUS
 10
0.31343
 20
3.49386
 30
 0
 11
0.31020
 21
3.49409
  0
LINE
  8
Engraving
 62
   255
 39
0.008
  6
CONTINUOUS
 10
0.31020
 20
3.49409
 30
 0
 11
0.31020
 21
3.49409
  0
LINE
  8
Engraving
 62
   255
 39
0.008
  6
CONTINUOUS
 10
0.31020
 20
3.49409
 30
 0
 11
0.29157
 21
3.49409
  0
CIRCLE
  8
Contour
 62
   7
 39
0.004
  6
CONTINUOUS
 10
0.43004
 20
0.90000
 30
 0
 40
0.18701
  0
CIRCLE
  8
Contour
 62
   7
 39
0.004
  6
CONTINUOUS
 10
1.30500
 20
0.90000
 30
 0
 40
0.18701
  0
CIRCLE
  8
Contour
 62
   7
 39
0.004
  6
CONTINUOUS
 10
1.49201
 20
0.24299
 30
 0
 40
0.10000
  0
CIRCLE
  8
Contour
 62
   7
 39
0.004
  6
CONTINUOUS
 10
1.49201
 20
8.49201
 30
 0
 40
0.10000
  0
CIRCLE
  8
Contour
 62
   7
 39
0.004
  6
CONTINUOUS
 10
0.24299
 20
0.24299
 30
 0
 40
0.10000
  0
CIRCLE
  8
Contour
 62
   7
 39
0.004
  6
CONTINUOUS
 10
0.43004
 20
1.90000
 30
 0
 40
0.18701
  0
CIRCLE
  8
Contour
 62
   7
 39
0.004
  6
CONTINUOUS
 10
1.30500
 20
1.90000
 30
 0
 40
0.18701
  0
CIRCLE
  8
Contour
 62
   7
 39
0.004
  6
CONTINUOUS
 10
0.24299
 20
8.49201
 30
 0
 40
0.10000
  0
CIRCLE
  8
Contour
 62
   7
 39
0.004
  6
CONTINUOUS
 10
0.86752
 20
4.57705
 30
 0
 40
0.18748
  0
CIRCLE
  8
Contour
 62
   7
 39
0.004
  6
CONTINUOUS
 10
0.86752
 20
2.95205
 30
 0
 40
0.18748
  0
CIRCLE
  8
Contour
 62
   7
 39
0.004
  6
CONTINUOUS
 10
0.86752
 20
7.82701
 30
 0
 40
0.18748
  0
CIRCLE
  8
Contour
 62
   7
 39
0.004
  6
CONTINUOUS
 10
0.86752
 20
6.20205
 30
 0
 40
0.18748
  0
CIRCLE
  8
Contour
 62
   7
 39
0.004
  6
CONTINUOUS
 10
0.31252
 20
3.76484
 30
 0
 40
0.12500
  0
LINE
  8
Reference_points
 62
   1
 39
0.004
  6
CONTINUOUS
 10
-0.03937
 20
0.00000
 30
 0
 11
0.03937
 21
0.00000
  0
LINE
  8
Reference_points
 62
   1
 39
0.004
  6
CONTINUOUS
 10
0.00000
 20
-0.03937
 30
 0
 11
0.00000
 21
0.03937
  0
LINE
  8
Reference_points
 62
   1
 39
0.004
  6
CONTINUOUS
 10
0.39067
 20
0.90000
 30
 0
 11
0.46941
 21
0.90000
  0
LINE
  8
Reference_points
 62
   1
 39
0.004
  6
CONTINUOUS
 10
0.43004
 20
0.86063
 30
 0
 11
0.43004
 21
0.93937
  0
LINE
  8
Reference_points
 62
   1
 39
0.004
  6
CONTINUOUS
 10
1.26563
 20
0.90000
 30
 0
 11
1.34437
 21
0.90000
  0
LINE
  8
Reference_points
 62
   1
 39
0.004
  6
CONTINUOUS
 10
1.30500
 20
0.86063
 30
 0
 11
1.30500
 21
0.93937
  0
LINE
  8
Reference_points
 62
   1
 39
0.004
  6
CONTINUOUS
 10
0.82815
 20
0.18976
 30
 0
 11
0.90689
 21
0.18976
  0
LINE
  8
Reference_points
 62
   1
 39
0.004
  6
CONTINUOUS
 10
0.86752
 20
0.15039
 30
 0
 11
0.86752
 21
0.22913
  0
LINE
  8
Reference_points
 62
   1
 39
0.004
  6
CONTINUOUS
 10
1.45264
 20
0.24299
 30
 0
 11
1.53138
 21
0.24299
  0
LINE
  8
Reference_points
 62
   1
 39
0.004
  6
CONTINUOUS
 10
1.49201
 20
0.20362
 30
 0
 11
1.49201
 21
0.28236
  0
LINE
  8
Reference_points
 62
   1
 39
0.004
  6
CONTINUOUS
 10
1.45264
 20
8.49201
 30
 0
 11
1.53138
 21
8.49201
  0
LINE
  8
Reference_points
 62
   1
 39
0.004
  6
CONTINUOUS
 10
1.49201
 20
8.45264
 30
 0
 11
1.49201
 21
8.53138
  0
LINE
  8
Reference_points
 62
   1
 39
0.004
  6
CONTINUOUS
 10
0.20362
 20
0.24299
 30
 0
 11
0.28236
 21
0.24299
  0
LINE
  8
Reference_points
 62
   1
 39
0.004
  6
CONTINUOUS
 10
0.24299
 20
0.20362
 30
 0
 11
0.24299
 21
0.28236
  0
LINE
  8
Reference_points
 62
   1
 39
0.004
  6
CONTINUOUS
 10
0.39067
 20
1.90000
 30
 0
 11
0.46941
 21
1.90000
  0
LINE
  8
Reference_points
 62
   1
 39
0.004
  6
CONTINUOUS
 10
0.43004
 20
1.86063
 30
 0
 11
0.43004
 21
1.93937
  0
LINE
  8
Reference_points
 62
   1
 39
0.004
  6
CONTINUOUS
 10
0.39067
 20
1.30000
 30
 0
 11
0.46941
 21
1.30000
  0
LINE
  8
Reference_points
 62
   1
 39
0.004
  6
CONTINUOUS
 10
0.43004
 20
1.26063
 30
 0
 11
0.43004
 21
1.33937
  0
LINE
  8
Reference_points
 62
   1
 39
0.004
  6
CONTINUOUS
 10
1.26563
 20
1.30000
 30
 0
 11
1.34437
 21
1.30000
  0
LINE
  8
Reference_points
 62
   1
 39
0.004
  6
CONTINUOUS
 10
1.30500
 20
1.26063
 30
 0
 11
1.30500
 21
1.33937
  0
LINE
  8
Reference_points
 62
   1
 39
0.004
  6
CONTINUOUS
 10
1.26563
 20
1.90000
 30
 0
 11
1.34437
 21
1.90000
  0
LINE
  8
Reference_points
 62
   1
 39
0.004
  6
CONTINUOUS
 10
1.30500
 20
1.86063
 30
 0
 11
1.30500
 21
1.93937
  0
LINE
  8
Reference_points
 62
   1
 39
0.004
  6
CONTINUOUS
 10
0.82815
 20
0.37000
 30
 0
 11
0.90689
 21
0.37000
  0
LINE
  8
Reference_points
 62
   1
 39
0.004
  6
CONTINUOUS
 10
0.86752
 20
0.33063
 30
 0
 11
0.86752
 21
0.40937
  0
LINE
  8
Reference_points
 62
   1
 39
0.004
  6
CONTINUOUS
 10
0.20362
 20
8.49201
 30
 0
 11
0.28236
 21
8.49201
  0
LINE
  8
Reference_points
 62
   1
 39
0.004
  6
CONTINUOUS
 10
0.24299
 20
8.45264
 30
 0
 11
0.24299
 21
8.53138
  0
LINE
  8
Reference_points
 62
   1
 39
0.004
  6
CONTINUOUS
 10
0.82815
 20
5.30402
 30
 0
 11
0.90689
 21
5.30402
  0
LINE
  8
Reference_points
 62
   1
 39
0.004
  6
CONTINUOUS
 10
0.86752
 20
5.26465
 30
 0
 11
0.86752
 21
5.34339
  0
LINE
  8
Reference_points
 62
   1
 39
0.004
  6
CONTINUOUS
 10
0.82815
 20
4.57705
 30
 0
 11
0.90689
 21
4.57705
  0
LINE
  8
Reference_points
 62
   1
 39
0.004
  6
CONTINUOUS
 10
0.86752
 20
4.53768
 30
 0
 11
0.86752
 21
4.61642
  0
LINE
  8
Reference_points
 62
   1
 39
0.004
  6
CONTINUOUS
 10
0.09890
 20
4.57685
 30
 0
 11
0.17764
 21
4.57685
  0
LINE
  8
Reference_points
 62
   1
 39
0.004
  6
CONTINUOUS
 10
0.13827
 20
4.53748
 30
 0
 11
0.13827
 21
4.61622
  0
LINE
  8
Reference_points
 62
   1
 39
0.004
  6
CONTINUOUS
 10
0.19669
 20
4.94185
 30
 0
 11
0.27543
 21
4.94185
  0
LINE
  8
Reference_points
 62
   1
 39
0.004
  6
CONTINUOUS
 10
0.23606
 20
4.90248
 30
 0
 11
0.23606
 21
4.98122
  0
LINE
  8
Reference_points
 62
   1
 39
0.004
  6
CONTINUOUS
 10
0.46390
 20
5.20906
 30
 0
 11
0.54264
 21
5.20906
  0
LINE
  8
Reference_points
 62
   1
 39
0.004
  6
CONTINUOUS
 10
0.50327
 20
5.16969
 30
 0
 11
0.50327
 21
5.24843
  0
LINE
  8
Reference_points
 62
   1
 39
0.004
  6
CONTINUOUS
 10
0.19669
 20
4.21185
 30
 0
 11
0.27543
 21
4.21185
  0
LINE
  8
Reference_points
 62
   1
 39
0.004
  6
CONTINUOUS
 10
0.23606
 20
4.17248
 30
 0
 11
0.23606
 21
4.25122
  0
LINE
  8
Reference_points
 62
   1
 39
0.004
  6
CONTINUOUS
 10
0.46390
 20
3.94465
 30
 0
 11
0.54264
 21
3.94465
  0
LINE
  8
Reference_points
 62
   1
 39
0.004
  6
CONTINUOUS
 10
0.50327
 20
3.90528
 30
 0
 11
0.50327
 21
3.98402
  0
LINE
  8
Reference_points
 62
   1
 39
0.004
  6
CONTINUOUS
 10
1.19390
 20
3.94465
 30
 0
 11
1.27264
 21
3.94465
  0
LINE
  8
Reference_points
 62
   1
 39
0.004
  6
CONTINUOUS
 10
1.23327
 20
3.90528
 30
 0
 11
1.23327
 21
3.98402
  0
LINE
  8
Reference_points
 62
   1
 39
0.004
  6
CONTINUOUS
 10
1.46110
 20
4.21185
 30
 0
 11
1.53984
 21
4.21185
  0
LINE
  8
Reference_points
 62
   1
 39
0.004
  6
CONTINUOUS
 10
1.50047
 20
4.17248
 30
 0
 11
1.50047
 21
4.25122
  0
LINE
  8
Reference_points
 62
   1
 39
0.004
  6
CONTINUOUS
 10
1.55890
 20
4.57685
 30
 0
 11
1.63764
 21
4.57685
  0
LINE
  8
Reference_points
 62
   1
 39
0.004
  6
CONTINUOUS
 10
1.59827
 20
4.53748
 30
 0
 11
1.59827
 21
4.61622
  0
LINE
  8
Reference_points
 62
   1
 39
0.004
  6
CONTINUOUS
 10
1.46110
 20
4.94185
 30
 0
 11
1.53984
 21
4.94185
  0
LINE
  8
Reference_points
 62
   1
 39
0.004
  6
CONTINUOUS
 10
1.50047
 20
4.90248
 30
 0
 11
1.50047
 21
4.98122
  0
LINE
  8
Reference_points
 62
   1
 39
0.004
  6
CONTINUOUS
 10
1.19390
 20
5.20906
 30
 0
 11
1.27264
 21
5.20906
  0
LINE
  8
Reference_points
 62
   1
 39
0.004
  6
CONTINUOUS
 10
1.23327
 20
5.16969
 30
 0
 11
1.23327
 21
5.24843
  0
LINE
  8
Reference_points
 62
   1
 39
0.004
  6
CONTINUOUS
 10
0.82815
 20
4.61902
 30
 0
 11
0.90689
 21
4.61902
  0
LINE
  8
Reference_points
 62
   1
 39
0.004
  6
CONTINUOUS
 10
0.86752
 20
4.57965
 30
 0
 11
0.86752
 21
4.65839
  0
LINE
  8
Reference_points
 62
   1
 39
0.004
  6
CONTINUOUS
 10
0.82815
 20
4.65902
 30
 0
 11
0.90689
 21
4.65902
  0
LINE
  8
Reference_points
 62
   1
 39
0.004
  6
CONTINUOUS
 10
0.86752
 20
4.61965
 30
 0
 11
0.86752
 21
4.69839
  0
LINE
  8
Reference_points
 62
   1
 39
0.004
  6
CONTINUOUS
 10
0.82815
 20
3.67764
 30
 0
 11
0.90689
 21
3.67764
  0
LINE
  8
Reference_points
 62
   1
 39
0.004
  6
CONTINUOUS
 10
0.86752
 20
3.63827
 30
 0
 11
0.86752
 21
3.71701
  0
LINE
  8
Reference_points
 62
   1
 39
0.004
  6
CONTINUOUS
 10
0.82815
 20
2.95205
 30
 0
 11
0.90689
 21
2.95205
  0
LINE
  8
Reference_points
 62
   1
 39
0.004
  6
CONTINUOUS
 10
0.86752
 20
2.91268
 30
 0
 11
0.86752
 21
2.99142
  0
LINE
  8
Reference_points
 62
   1
 39
0.004
  6
CONTINUOUS
 10
0.09890
 20
2.95213
 30
 0
 11
0.17764
 21
2.95213
  0
LINE
  8
Reference_points
 62
   1
 39
0.004
  6
CONTINUOUS
 10
0.13827
 20
2.91276
 30
 0
 11
0.13827
 21
2.99150
  0
LINE
  8
Reference_points
 62
   1
 39
0.004
  6
CONTINUOUS
 10
0.19669
 20
3.31713
 30
 0
 11
0.27543
 21
3.31713
  0
LINE
  8
Reference_points
 62
   1
 39
0.004
  6
CONTINUOUS
 10
0.23606
 20
3.27776
 30
 0
 11
0.23606
 21
3.35650
  0
LINE
  8
Reference_points
 62
   1
 39
0.004
  6
CONTINUOUS
 10
0.46390
 20
3.58433
 30
 0
 11
0.54264
 21
3.58433
  0
LINE
  8
Reference_points
 62
   1
 39
0.004
  6
CONTINUOUS
 10
0.50327
 20
3.54496
 30
 0
 11
0.50327
 21
3.62370
  0
LINE
  8
Reference_points
 62
   1
 39
0.004
  6
CONTINUOUS
 10
0.19669
 20
2.58713
 30
 0
 11
0.27543
 21
2.58713
  0
LINE
  8
Reference_points
 62
   1
 39
0.004
  6
CONTINUOUS
 10
0.23606
 20
2.54776
 30
 0
 11
0.23606
 21
2.62650
  0
LINE
  8
Reference_points
 62
   1
 39
0.004
  6
CONTINUOUS
 10
1.46110
 20
2.58713
 30
 0
 11
1.53984
 21
2.58713
  0
LINE
  8
Reference_points
 62
   1
 39
0.004
  6
CONTINUOUS
 10
1.50047
 20
2.54776
 30
 0
 11
1.50047
 21
2.62650
  0
LINE
  8
Reference_points
 62
   1
 39
0.004
  6
CONTINUOUS
 10
1.55890
 20
2.95213
 30
 0
 11
1.63764
 21
2.95213
  0
LINE
  8
Reference_points
 62
   1
 39
0.004
  6
CONTINUOUS
 10
1.59827
 20
2.91276
 30
 0
 11
1.59827
 21
2.99150
  0
LINE
  8
Reference_points
 62
   1
 39
0.004
  6
CONTINUOUS
 10
1.46110
 20
3.31713
 30
 0
 11
1.53984
 21
3.31713
  0
LINE
  8
Reference_points
 62
   1
 39
0.004
  6
CONTINUOUS
 10
1.50047
 20
3.27776
 30
 0
 11
1.50047
 21
3.35650
  0
LINE
  8
Reference_points
 62
   1
 39
0.004
  6
CONTINUOUS
 10
1.19390
 20
3.58433
 30
 0
 11
1.27264
 21
3.58433
  0
LINE
  8
Reference_points
 62
   1
 39
0.004
  6
CONTINUOUS
 10
1.23327
 20
3.54496
 30
 0
 11
1.23327
 21
3.62370
  0
LINE
  8
Reference_points
 62
   1
 39
0.004
  6
CONTINUOUS
 10
0.82815
 20
2.99406
 30
 0
 11
0.90689
 21
2.99406
  0
LINE
  8
Reference_points
 62
   1
 39
0.004
  6
CONTINUOUS
 10
0.86752
 20
2.95469
 30
 0
 11
0.86752
 21
3.03343
  0
LINE
  8
Reference_points
 62
   1
 39
0.004
  6
CONTINUOUS
 10
0.82815
 20
3.03402
 30
 0
 11
0.90689
 21
3.03402
  0
LINE
  8
Reference_points
 62
   1
 39
0.004
  6
CONTINUOUS
 10
0.86752
 20
2.99465
 30
 0
 11
0.86752
 21
3.07339
  0
LINE
  8
Reference_points
 62
   1
 39
0.004
  6
CONTINUOUS
 10
0.82815
 20
8.55402
 30
 0
 11
0.90689
 21
8.55402
  0
LINE
  8
Reference_points
 62
   1
 39
0.004
  6
CONTINUOUS
 10
0.86752
 20
8.51465
 30
 0
 11
0.86752
 21
8.59339
  0
LINE
  8
Reference_points
 62
   1
 39
0.004
  6
CONTINUOUS
 10
0.82815
 20
7.82701
 30
 0
 11
0.90689
 21
7.82701
  0
LINE
  8
Reference_points
 62
   1
 39
0.004
  6
CONTINUOUS
 10
0.86752
 20
7.78764
 30
 0
 11
0.86752
 21
7.86638
  0
LINE
  8
Reference_points
 62
   1
 39
0.004
  6
CONTINUOUS
 10
0.09890
 20
7.82630
 30
 0
 11
0.17764
 21
7.82630
  0
LINE
  8
Reference_points
 62
   1
 39
0.004
  6
CONTINUOUS
 10
0.13827
 20
7.78693
 30
 0
 11
0.13827
 21
7.86567
  0
LINE
  8
Reference_points
 62
   1
 39
0.004
  6
CONTINUOUS
 10
0.19669
 20
8.19130
 30
 0
 11
0.27543
 21
8.19130
  0
LINE
  8
Reference_points
 62
   1
 39
0.004
  6
CONTINUOUS
 10
0.23606
 20
8.15193
 30
 0
 11
0.23606
 21
8.23067
  0
LINE
  8
Reference_points
 62
   1
 39
0.004
  6
CONTINUOUS
 10
0.46390
 20
8.45850
 30
 0
 11
0.54264
 21
8.45850
  0
LINE
  8
Reference_points
 62
   1
 39
0.004
  6
CONTINUOUS
 10
0.50327
 20
8.41913
 30
 0
 11
0.50327
 21
8.49787
  0
LINE
  8
Reference_points
 62
   1
 39
0.004
  6
CONTINUOUS
 10
0.19669
 20
7.46130
 30
 0
 11
0.27543
 21
7.46130
  0
LINE
  8
Reference_points
 62
   1
 39
0.004
  6
CONTINUOUS
 10
0.23606
 20
7.42193
 30
 0
 11
0.23606
 21
7.50067
  0
LINE
  8
Reference_points
 62
   1
 39
0.004
  6
CONTINUOUS
 10
0.46390
 20
7.19409
 30
 0
 11
0.54264
 21
7.19409
  0
LINE
  8
Reference_points
 62
   1
 39
0.004
  6
CONTINUOUS
 10
0.50327
 20
7.15472
 30
 0
 11
0.50327
 21
7.23346
  0
LINE
  8
Reference_points
 62
   1
 39
0.004
  6
CONTINUOUS
 10
1.19390
 20
7.19409
 30
 0
 11
1.27264
 21
7.19409
  0
LINE
  8
Reference_points
 62
   1
 39
0.004
  6
CONTINUOUS
 10
1.23327
 20
7.15472
 30
 0
 11
1.23327
 21
7.23346
  0
LINE
  8
Reference_points
 62
   1
 39
0.004
  6
CONTINUOUS
 10
1.46110
 20
7.46130
 30
 0
 11
1.53984
 21
7.46130
  0
LINE
  8
Reference_points
 62
   1
 39
0.004
  6
CONTINUOUS
 10
1.50047
 20
7.42193
 30
 0
 11
1.50047
 21
7.50067
  0
LINE
  8
Reference_points
 62
   1
 39
0.004
  6
CONTINUOUS
 10
1.55890
 20
7.82630
 30
 0
 11
1.63764
 21
7.82630
  0
LINE
  8
Reference_points
 62
   1
 39
0.004
  6
CONTINUOUS
 10
1.59827
 20
7.78693
 30
 0
 11
1.59827
 21
7.86567
  0
LINE
  8
Reference_points
 62
   1
 39
0.004
  6
CONTINUOUS
 10
1.46110
 20
8.19130
 30
 0
 11
1.53984
 21
8.19130
  0
LINE
  8
Reference_points
 62
   1
 39
0.004
  6
CONTINUOUS
 10
1.50047
 20
8.15193
 30
 0
 11
1.50047
 21
8.23067
  0
LINE
  8
Reference_points
 62
   1
 39
0.004
  6
CONTINUOUS
 10
1.19390
 20
8.45850
 30
 0
 11
1.27264
 21
8.45850
  0
LINE
  8
Reference_points
 62
   1
 39
0.004
  6
CONTINUOUS
 10
1.23327
 20
8.41913
 30
 0
 11
1.23327
 21
8.49787
  0
LINE
  8
Reference_points
 62
   1
 39
0.004
  6
CONTINUOUS
 10
0.82815
 20
6.92902
 30
 0
 11
0.90689
 21
6.92902
  0
LINE
  8
Reference_points
 62
   1
 39
0.004
  6
CONTINUOUS
 10
0.86752
 20
6.88965
 30
 0
 11
0.86752
 21
6.96839
  0
LINE
  8
Reference_points
 62
   1
 39
0.004
  6
CONTINUOUS
 10
0.82815
 20
6.20205
 30
 0
 11
0.90689
 21
6.20205
  0
LINE
  8
Reference_points
 62
   1
 39
0.004
  6
CONTINUOUS
 10
0.86752
 20
6.16268
 30
 0
 11
0.86752
 21
6.24142
  0
LINE
  8
Reference_points
 62
   1
 39
0.004
  6
CONTINUOUS
 10
0.09890
 20
6.20157
 30
 0
 11
0.17764
 21
6.20157
  0
LINE
  8
Reference_points
 62
   1
 39
0.004
  6
CONTINUOUS
 10
0.13827
 20
6.16220
 30
 0
 11
0.13827
 21
6.24094
  0
LINE
  8
Reference_points
 62
   1
 39
0.004
  6
CONTINUOUS
 10
0.19669
 20
6.56657
 30
 0
 11
0.27543
 21
6.56657
  0
LINE
  8
Reference_points
 62
   1
 39
0.004
  6
CONTINUOUS
 10
0.23606
 20
6.52720
 30
 0
 11
0.23606
 21
6.60594
  0
LINE
  8
Reference_points
 62
   1
 39
0.004
  6
CONTINUOUS
 10
0.46390
 20
6.83378
 30
 0
 11
0.54264
 21
6.83378
  0
LINE
  8
Reference_points
 62
   1
 39
0.004
  6
CONTINUOUS
 10
0.50327
 20
6.79441
 30
 0
 11
0.50327
 21
6.87315
  0
LINE
  8
Reference_points
 62
   1
 39
0.004
  6
CONTINUOUS
 10
0.19669
 20
5.83657
 30
 0
 11
0.27543
 21
5.83657
  0
LINE
  8
Reference_points
 62
   1
 39
0.004
  6
CONTINUOUS
 10
0.23606
 20
5.79720
 30
 0
 11
0.23606
 21
5.87594
  0
LINE
  8
Reference_points
 62
   1
 39
0.004
  6
CONTINUOUS
 10
0.46390
 20
5.56937
 30
 0
 11
0.54264
 21
5.56937
  0
LINE
  8
Reference_points
 62
   1
 39
0.004
  6
CONTINUOUS
 10
0.50327
 20
5.53000
 30
 0
 11
0.50327
 21
5.60874
  0
LINE
  8
Reference_points
 62
   1
 39
0.004
  6
CONTINUOUS
 10
1.19390
 20
5.56937
 30
 0
 11
1.27264
 21
5.56937
  0
LINE
  8
Reference_points
 62
   1
 39
0.004
  6
CONTINUOUS
 10
1.23327
 20
5.53000
 30
 0
 11
1.23327
 21
5.60874
  0
LINE
  8
Reference_points
 62
   1
 39
0.004
  6
CONTINUOUS
 10
1.46110
 20
5.83657
 30
 0
 11
1.53984
 21
5.83657
  0
LINE
  8
Reference_points
 62
   1
 39
0.004
  6
CONTINUOUS
 10
1.50047
 20
5.79720
 30
 0
 11
1.50047
 21
5.87594
  0
LINE
  8
Reference_points
 62
   1
 39
0.004
  6
CONTINUOUS
 10
1.55890
 20
6.20157
 30
 0
 11
1.63764
 21
6.20157
  0
LINE
  8
Reference_points
 62
   1
 39
0.004
  6
CONTINUOUS
 10
1.59827
 20
6.16220
 30
 0
 11
1.59827
 21
6.24094
  0
LINE
  8
Reference_points
 62
   1
 39
0.004
  6
CONTINUOUS
 10
1.46110
 20
6.56657
 30
 0
 11
1.53984
 21
6.56657
  0
LINE
  8
Reference_points
 62
   1
 39
0.004
  6
CONTINUOUS
 10
1.50047
 20
6.52720
 30
 0
 11
1.50047
 21
6.60594
  0
LINE
  8
Reference_points
 62
   1
 39
0.004
  6
CONTINUOUS
 10
1.19390
 20
6.83378
 30
 0
 11
1.27264
 21
6.83378
  0
LINE
  8
Reference_points
 62
   1
 39
0.004
  6
CONTINUOUS
 10
1.23327
 20
6.79441
 30
 0
 11
1.23327
 21
6.87315
  0
LINE
  8
Reference_points
 62
   1
 39
0.004
  6
CONTINUOUS
 10
0.82815
 20
6.28406
 30
 0
 11
0.90689
 21
6.28406
  0
LINE
  8
Reference_points
 62
   1
 39
0.004
  6
CONTINUOUS
 10
0.86752
 20
6.24469
 30
 0
 11
0.86752
 21
6.32343
  0
LINE
  8
Reference_points
 62
   1
 39
0.004
  6
CONTINUOUS
 10
0.82815
 20
6.24402
 30
 0
 11
0.90689
 21
6.24402
  0
LINE
  8
Reference_points
 62
   1
 39
0.004
  6
CONTINUOUS
 10
0.86752
 20
6.20465
 30
 0
 11
0.86752
 21
6.28339
  0
LINE
  8
Reference_points
 62
   1
 39
0.004
  6
CONTINUOUS
 10
0.39067
 20
2.30000
 30
 0
 11
0.46941
 21
2.30000
  0
LINE
  8
Reference_points
 62
   1
 39
0.004
  6
CONTINUOUS
 10
0.43004
 20
2.26063
 30
 0
 11
0.43004
 21
2.33937
  0
LINE
  8
Reference_points
 62
   1
 39
0.004
  6
CONTINUOUS
 10
1.26563
 20
2.30000
 30
 0
 11
1.34437
 21
2.30000
  0
LINE
  8
Reference_points
 62
   1
 39
0.004
  6
CONTINUOUS
 10
1.30500
 20
2.26063
 30
 0
 11
1.30500
 21
2.33937
  0
LINE
  8
Reference_points
 62
   1
 39
0.004
  6
CONTINUOUS
 10
0.82815
 20
7.90898
 30
 0
 11
0.90689
 21
7.90898
  0
LINE
  8
Reference_points
 62
   1
 39
0.004
  6
CONTINUOUS
 10
0.86752
 20
7.86961
 30
 0
 11
0.86752
 21
7.94835
  0
LINE
  8
Reference_points
 62
   1
 39
0.004
  6
CONTINUOUS
 10
0.82815
 20
7.86902
 30
 0
 11
0.90689
 21
7.86902
  0
LINE
  8
Reference_points
 62
   1
 39
0.004
  6
CONTINUOUS
 10
0.86752
 20
7.82965
 30
 0
 11
0.86752
 21
7.90839
  0
LINE
  8
Reference_points
 62
   1
 39
0.004
  6
CONTINUOUS
 10
0.27315
 20
3.76484
 30
 0
 11
0.35189
 21
3.76484
  0
LINE
  8
Reference_points
 62
   1
 39
0.004
  6
CONTINUOUS
 10
0.31252
 20
3.72547
 30
 0
 11
0.31252
 21
3.80421
  0
LINE
  8
Reference_points
 62
   1
 39
0.004
  6
CONTINUOUS
 10
0.27315
 20
4.08488
 30
 0
 11
0.35189
 21
4.08488
  0
LINE
  8
Reference_points
 62
   1
 39
0.004
  6
CONTINUOUS
 10
0.31252
 20
4.04551
 30
 0
 11
0.31252
 21
4.12425
  0
LINE
  8
Reference_points
 62
   1
 39
0.004
  6
CONTINUOUS
 10
0.27315
 20
3.44488
 30
 0
 11
0.35189
 21
3.44488
  0
LINE
  8
Reference_points
 62
   1
 39
0.004
  6
CONTINUOUS
 10
0.31252
 20
3.40551
 30
 0
 11
0.31252
 21
3.48425
  0
LINE
  8
Reference_points
 62
   1
 39
0.004
  6
CONTINUOUS
 10
0.27315
 20
3.76449
 30
 0
 11
0.35189
 21
3.76449
  0
LINE
  8
Reference_points
 62
   1
 39
0.004
  6
CONTINUOUS
 10
0.31252
 20
3.72512
 30
 0
 11
0.31252
 21
3.80386
  0
ENDSEC
  0
EOF
